  0
SECTION
  2
HEADER
  9
$ACADVER
  1
AC1015
  9
$ACADMAINTVER
 70
     6
  9
$DWGCODEPAGE
  3
ANSI_1254
  9
$INSBASE
 10
0.0
 20
0.0
 30
0.0
  9
$EXTMIN
 10
0.0
 20
0.0
 30
0.0
  9
$EXTMAX
 10
279.4
 20
215.9
 30
0.0
  9
$LIMMIN
 10
0.0
 20
0.0
  9
$LIMMAX
 10
279.4
 20
215.9
  9
$ORTHOMODE
 70
     0
  9
$REGENMODE
 70
     1
  9
$FILLMODE
 70
     1
  9
$QTEXTMODE
 70
     0
  9
$MIRRTEXT
 70
     1
  9
$LTSCALE
 40
1.0
  9
$ATTMODE
 70
     1
  9
$TEXTSIZE
 40
3.5
  9
$TRACEWID
 40
1.0
  9
$TEXTSTYLE
  7
Standard
  9
$CLAYER
  8
0
  9
$CELTYPE
  6
ByLayer
  9
$CECOLOR
 62
   256
  9
$CELTSCALE
 40
1.0
  9
$DISPSILH
 70
     0
  9
$DIMSCALE
 40
1.0
  9
$DIMASZ
 40
3.5
  9
$DIMEXO
 40
1.0
  9
$DIMDLI
 40
3.75
  9
$DIMRND
 40
0.0
  9
$DIMDLE
 40
0.0
  9
$DIMEXE
 40
1.0
  9
$DIMTP
 40
0.0
  9
$DIMTM
 40
0.0
  9
$DIMTXT
 40
3.5
  9
$DIMCEN
 40
2.5
  9
$DIMTSZ
 40
0.0
  9
$DIMTOL
 70
     0
  9
$DIMLIM
 70
     0
  9
$DIMTIH
 70
     1
  9
$DIMTOH
 70
     1
  9
$DIMSE1
 70
     0
  9
$DIMSE2
 70
     0
  9
$DIMTAD
 70
     1
  9
$DIMZIN
 70
     0
  9
$DIMBLK
  1

  9
$DIMASO
 70
     1
  9
$DIMSHO
 70
     1
  9
$DIMPOST
  1

  9
$DIMAPOST
  1

  9
$DIMALT
 70
     0
  9
$DIMALTD
 70
     3
  9
$DIMALTF
 40
0.0393700787
  9
$DIMLFAC
 40
1.0
  9
$DIMTOFL
 70
     1
  9
$DIMTVP
 40
0.0
  9
$DIMTIX
 70
     0
  9
$DIMSOXD
 70
     0
  9
$DIMSAH
 70
     0
  9
$DIMBLK1
  1

  9
$DIMBLK2
  1

  9
$DIMSTYLE
  2
ISO-25
  9
$DIMCLRD
 70
     0
  9
$DIMCLRE
 70
     0
  9
$DIMCLRT
 70
     0
  9
$DIMTFAC
 40
1.0
  9
$DIMGAP
 40
1.524
  9
$DIMJUST
 70
     0
  9
$DIMSD1
 70
     0
  9
$DIMSD2
 70
     0
  9
$DIMTOLJ
 70
     0
  9
$DIMTZIN
 70
     0
  9
$DIMALTZ
 70
     0
  9
$DIMALTTZ
 70
     0
  9
$DIMUPT
 70
     0
  9
$DIMDEC
 70
     2
  9
$DIMTDEC
 70
     2
  9
$DIMALTU
 70
     2
  9
$DIMALTTD
 70
     3
  9
$DIMTXSTY
  7
Standard
  9
$DIMAUNIT
 70
     0
  9
$DIMADEC
 70
     2
  9
$DIMALTRND
 40
0.0
  9
$DIMAZIN
 70
     0
  9
$DIMDSEP
 70
    44
  9
$DIMATFIT
 70
     3
  9
$DIMFRAC
 70
     0
  9
$DIMLDRBLK
  1

  9
$DIMLUNIT
 70
     2
  9
$DIMLWD
 70
    -2
  9
$DIMLWE
 70
    -2
  9
$DIMTMOVE
 70
     0
  9
$LUNITS
 70
     2
  9
$LUPREC
 70
     2
  9
$SKETCHINC
 40
1.0
  9
$FILLETRAD
 40
10.0
  9
$AUNITS
 70
     0
  9
$AUPREC
 70
     2
  9
$MENU
  1
.
  9
$ELEVATION
 40
0.0
  9
$PELEVATION
 40
0.0
  9
$THICKNESS
 40
0.0
  9
$LIMCHECK
 70
     0
  9
$CHAMFERA
 40
0.0
  9
$CHAMFERB
 40
0.0
  9
$CHAMFERC
 40
0.0
  9
$CHAMFERD
 40
0.0
  9
$SKPOLY
 70
     0
  9
$TDCREATE
 40
2458985.71801853
  9
$TDUCREATE
 40
2458985.59301853
  9
$TDUPDATE
 40
2458985.718018773
  9
$TDUUPDATE
 40
2458985.593018773
  9
$TDINDWG
 40
0.0000000116
  9
$TDUSRTIMER
 40
0.0000000116
  9
$USRTIMER
 70
     1
  9
$ANGBASE
 50
0.0
  9
$ANGDIR
 70
     0
  9
$PDMODE
 70
     0
  9
$PDSIZE
 40
-1.0
  9
$PLINEWID
 40
0.0
  9
$SPLFRAME
 70
     0
  9
$SPLINETYPE
 70
     6
  9
$SPLINESEGS
 70
     8
  9
$HANDSEED
  5
DD
  9
$SURFTAB1
 70
     6
  9
$SURFTAB2
 70
     6
  9
$SURFTYPE
 70
     6
  9
$SURFU
 70
     6
  9
$SURFV
 70
     6
  9
$UCSBASE
  2

  9
$UCSNAME
  2

  9
$UCSORG
 10
0.0
 20
0.0
 30
0.0
  9
$UCSXDIR
 10
1.0
 20
0.0
 30
0.0
  9
$UCSYDIR
 10
0.0
 20
1.0
 30
0.0
  9
$UCSORTHOREF
  2

  9
$UCSORTHOVIEW
 70
     0
  9
$UCSORGTOP
 10
0.0
 20
0.0
 30
0.0
  9
$UCSORGBOTTOM
 10
0.0
 20
0.0
 30
0.0
  9
$UCSORGLEFT
 10
0.0
 20
0.0
 30
0.0
  9
$UCSORGRIGHT
 10
0.0
 20
0.0
 30
0.0
  9
$UCSORGFRONT
 10
0.0
 20
0.0
 30
0.0
  9
$UCSORGBACK
 10
0.0
 20
0.0
 30
0.0
  9
$PUCSBASE
  2

  9
$PUCSNAME
  2

  9
$PUCSORG
 10
0.0
 20
0.0
 30
0.0
  9
$PUCSXDIR
 10
1.0
 20
0.0
 30
0.0
  9
$PUCSYDIR
 10
0.0
 20
1.0
 30
0.0
  9
$PUCSORTHOREF
  2

  9
$PUCSORTHOVIEW
 70
     0
  9
$PUCSORGTOP
 10
0.0
 20
0.0
 30
0.0
  9
$PUCSORGBOTTOM
 10
0.0
 20
0.0
 30
0.0
  9
$PUCSORGLEFT
 10
0.0
 20
0.0
 30
0.0
  9
$PUCSORGRIGHT
 10
0.0
 20
0.0
 30
0.0
  9
$PUCSORGFRONT
 10
0.0
 20
0.0
 30
0.0
  9
$PUCSORGBACK
 10
0.0
 20
0.0
 30
0.0
  9
$USERI1
 70
     0
  9
$USERI2
 70
     0
  9
$USERI3
 70
     0
  9
$USERI4
 70
     0
  9
$USERI5
 70
     0
  9
$USERR1
 40
0.0
  9
$USERR2
 40
0.0
  9
$USERR3
 40
0.0
  9
$USERR4
 40
0.0
  9
$USERR5
 40
0.0
  9
$WORLDVIEW
 70
     1
  9
$SHADEDGE
 70
     3
  9
$SHADEDIF
 70
    70
  9
$TILEMODE
 70
     1
  9
$MAXACTVP
 70
    64
  9
$PINSBASE
 10
0.0
 20
0.0
 30
0.0
  9
$PLIMCHECK
 70
     0
  9
$PEXTMIN
 10
1.0000000000E+20
 20
1.0000000000E+20
 30
1.0000000000E+20
  9
$PEXTMAX
 10
-1.0000000000E+20
 20
-1.0000000000E+20
 30
-1.0000000000E+20
  9
$PLIMMIN
 10
0.0
 20
0.0
  9
$PLIMMAX
 10
420.0
 20
297.0
  9
$UNITMODE
 70
     0
  9
$VISRETAIN
 70
     1
  9
$PLINEGEN
 70
     0
  9
$PSLTSCALE
 70
     1
  9
$TREEDEPTH
 70
  3020
  9
$CMLSTYLE
  2
Standard
  9
$CMLJUST
 70
     0
  9
$CMLSCALE
 40
20.0
  9
$PROXYGRAPHICS
 70
     1
  9
$MEASUREMENT
 70
     1
  9
$CELWEIGHT
370
    -1
  9
$ENDCAPS
280
     0
  9
$JOINSTYLE
280
     0
  9
$LWDISPLAY
290
     1
  9
$INSUNITS
 70
     4
  9
$HYPERLINKBASE
  1

  9
$STYLESHEET
  1

  9
$XEDIT
290
     1
  9
$CEPSNTYPE
380
     0
  9
$PSTYLEMODE
290
     1
  9
$FINGERPRINTGUID
  2
{5d367ce2-e184-493b-9c6a-59f9f9d45553}
  9
$VERSIONGUID
  2
{FAEB1C32-E019-11D5-929B-00C0DF256EC4}
  9
$EXTNAMES
290
     1
  9
$PSVPSCALE
 40
0.0
  9
$OLESTARTUP
290
     0
  0
ENDSEC
  0
SECTION
  2
CLASSES
  0
CLASS
  1
ACDBDICTIONARYWDFLT
  2
AcDbDictionaryWithDefault
  3
ObjectDBX Classes
 90
        0
280
     0
281
     0
  0
CLASS
  1
VISUALSTYLE
  2
AcDbVisualStyle
  3
ObjectDBX Classes
 90
     4095
280
     0
281
     0
  0
CLASS
  1
MATERIAL
  2
AcDbMaterial
  3
ObjectDBX Classes
 90
     1153
280
     0
281
     0
  0
CLASS
  1
SCALE
  2
AcDbScale
  3
ObjectDBX Classes
 90
     1153
280
     0
281
     0
  0
CLASS
  1
TABLESTYLE
  2
AcDbTableStyle
  3
ObjectDBX Classes
 90
     4095
280
     0
281
     0
  0
CLASS
  1
MLEADERSTYLE
  2
AcDbMLeaderStyle
  3
ACDB_MLEADERSTYLE_CLASS
 90
     4095
280
     0
281
     0
  0
CLASS
  1
SUN
  2
AcDbSun
  3
SCENEOE
 90
     1153
280
     0
281
     0
  0
CLASS
  1
ACDBPLACEHOLDER
  2
AcDbPlaceHolder
  3
ObjectDBX Classes
 90
        0
280
     0
281
     0
  0
CLASS
  1
LAYOUT
  2
AcDbLayout
  3
ObjectDBX Classes
 90
        0
280
     0
281
     0
  0
ENDSEC
  0
SECTION
  2
TABLES
  0
TABLE
  2
VPORT
  5
8
330
0
100
AcDbSymbolTable
 70
     1
  0
VPORT
  5
29
330
8
100
AcDbSymbolTableRecord
100
AcDbViewportTableRecord
  2
*Active
 70
     0
 10
0.0
 20
0.0
 11
1.0
 21
1.0
 12
139.7
 22
107.95
 13
0.0
 23
0.0
 14
10.0
 24
10.0
 15
10.0
 25
10.0
 16
0.0
 26
0.0
 36
1.0
 17
0.0
 27
0.0
 37
0.0
 40
215.9
 41
1.2941176471
 42
50.0
 43
0.0
 44
0.0
 50
0.0
 51
0.0
 71
     0
 72
  2000
 73
     1
 74
     3
 75
     0
 76
     0
 77
     0
 78
     0
281
     0
 65
     1
110
0.0
120
0.0
130
0.0
111
1.0
121
0.0
131
0.0
112
0.0
122
1.0
132
0.0
 79
     0
146
0.0
  0
ENDTAB
  0
TABLE
  2
LTYPE
  5
5
330
0
100
AcDbSymbolTable
 70
     6
  0
LTYPE
  5
14
330
5
100
AcDbSymbolTableRecord
100
AcDbLinetypeTableRecord
  2
ByBlock
 70
     0
  3

 72
    65
 73
     0
 40
0.0
  0
LTYPE
  5
15
330
5
100
AcDbSymbolTableRecord
100
AcDbLinetypeTableRecord
  2
ByLayer
 70
     0
  3

 72
    65
 73
     0
 40
0.0
  0
LTYPE
  5
16
330
5
100
AcDbSymbolTableRecord
100
AcDbLinetypeTableRecord
  2
Continuous
 70
     0
  3
Solid line
 72
    65
 73
     0
 40
0.0
  0
LTYPE
  5
6E
330
5
100
AcDbSymbolTableRecord
100
AcDbLinetypeTableRecord
  2
HIDDEN
 70
     0
  3
Hidden __ __ __ __ __ __ __ __ __ __ __ __ __ __
 72
    65
 73
     2
 40
1.905
 49
1.27
 74
     0
 49
-0.635
 74
     0
  0
LTYPE
  5
6F
330
5
100
AcDbSymbolTableRecord
100
AcDbLinetypeTableRecord
  2
PHANTOM
 70
     0
  3
Phantom ______  __  __  ______  __  __  ______
 72
    65
 73
     6
 40
12.7
 49
6.35
 74
     0
 49
-1.27
 74
     0
 49
1.27
 74
     0
 49
-1.27
 74
     0
 49
1.27
 74
     0
 49
-1.27
 74
     0
  0
LTYPE
  5
70
330
5
100
AcDbSymbolTableRecord
100
AcDbLinetypeTableRecord
  2
CENTER
 70
     0
  3
Center ____ _ ____ _ ____ _ ____ _ ____ _ ____
 72
    65
 73
     4
 40
10.16
 49
6.35
 74
     0
 49
-1.27
 74
     0
 49
1.27
 74
     0
 49
-1.27
 74
     0
  0
LTYPE
  5
71
330
5
100
AcDbSymbolTableRecord
100
AcDbLinetypeTableRecord
  2
CENTERX2
 70
     0
  3
Center (2x) ________  __  ________  __  _____
 72
    65
 73
     4
 40
20.32
 49
12.7
 74
     0
 49
-2.54
 74
     0
 49
2.54
 74
     0
 49
-2.54
 74
     0
  0
LTYPE
  5
72
330
5
100
AcDbSymbolTableRecord
100
AcDbLinetypeTableRecord
  2
DOT2
 70
     0
  3
Dot (.5x) ........................................
 72
    65
 73
     2
 40
0.635
 49
0.0
 74
     0
 49
-0.635
 74
     0
  0
ENDTAB
  0
TABLE
  2
LAYER
  5
2
330
0
100
AcDbSymbolTable
 70
    17
  0
LAYER
  5
10
330
2
100
AcDbSymbolTableRecord
100
AcDbLayerTableRecord
  2
0
 70
     0
 62
     7
  6
Continuous
370
    -3
390
F
  0
LAYER
  5
73
330
2
100
AcDbSymbolTableRecord
100
AcDbLayerTableRecord
  2
FORMAT
 70
     0
 62
     7
  6
Continuous
370
    -3
390
F
  0
LAYER
  5
74
330
2
100
AcDbSymbolTableRecord
100
AcDbLayerTableRecord
  2
YARDIMCI_GEOMETRI
 70
     0
 62
    -6
  6
Continuous
290
     0
370
    -3
390
F
  0
LAYER
  5
75
330
2
100
AcDbSymbolTableRecord
100
AcDbLayerTableRecord
  2
SAYFA_CERCEVESI
 70
     0
 62
     7
  6
Continuous
370
    25
390
F
  0
LAYER
  5
76
330
2
100
AcDbSymbolTableRecord
100
AcDbLayerTableRecord
  2
ANTET
 70
     0
 62
     7
  6
Continuous
370
    -3
390
F
  0
LAYER
  5
77
330
2
100
AcDbSymbolTableRecord
100
AcDbLayerTableRecord
  2
OLCU
 70
     0
 62
   150
  6
Continuous
370
    -3
390
F
  0
LAYER
  5
78
330
2
100
AcDbSymbolTableRecord
100
AcDbLayerTableRecord
  2
METIN
 70
     0
 62
    96
  6
Continuous
370
    -3
390
F
  0
LAYER
  5
79
330
2
100
AcDbSymbolTableRecord
100
AcDbLayerTableRecord
  2
BALON
 70
     0
 62
     5
  6
Continuous
370
    -3
390
F
  0
LAYER
  5
7A
330
2
100
AcDbSymbolTableRecord
100
AcDbLayerTableRecord
  2
VURGU
 70
     0
 62
     7
  6
Continuous
370
    -3
390
F
  0
LAYER
  5
7B
330
2
100
AcDbSymbolTableRecord
100
AcDbLayerTableRecord
  2
SILIK
 70
     0
 62
     7
  6
Continuous
370
    -3
390
F
  0
LAYER
  5
7C
330
2
100
AcDbSymbolTableRecord
100
AcDbLayerTableRecord
  2
MODEL
 70
     0
 62
     7
  6
Continuous
370
    -3
390
F
  0
LAYER
  5
7D
330
2
100
AcDbSymbolTableRecord
100
AcDbLayerTableRecord
  2
DETAYLANDıRMA
 70
     0
 62
   190
  6
Continuous
370
    -3
390
F
  0
LAYER
  5
7E
330
2
100
AcDbSymbolTableRecord
100
AcDbLayerTableRecord
  2
TOLERANS
 70
     0
 62
   230
  6
Continuous
370
    -3
390
F
  0
LAYER
  5
7F
330
2
100
AcDbSymbolTableRecord
100
AcDbLayerTableRecord
  2
MERKEZ_CIZGILERI
 70
     0
 62
    30
  6
Continuous
370
    -3
390
F
  0
LAYER
  5
80
330
2
100
AcDbSymbolTableRecord
100
AcDbLayerTableRecord
  2
KESIT-DETAY_CIZGILERI
 70
     0
 62
     7
  6
Continuous
370
    -3
390
F
  0
LAYER
  5
81
330
2
100
AcDbSymbolTableRecord
100
AcDbLayerTableRecord
  2
\U+041E\U+0421\U+0415\U+0412\U+042B\U+0415
 70
     0
 62
     7
  6
Continuous
370
    -3
390
F
  0
LAYER
  5
82
330
2
100
AcDbSymbolTableRecord
100
AcDbLayerTableRecord
  2
\U+0412\U+041E\U+0414\U+042F\U+041D\U+042B\U+0415_\U+0417\U+041D\U+0410\U+041A\U+0418
 70
     0
 62
    11
  6
Continuous
370
    -3
390
F
  0
ENDTAB
  0
TABLE
  2
STYLE
  5
3
330
0
100
AcDbSymbolTable
 70
     1
  0
STYLE
  5
11
330
3
100
AcDbSymbolTableRecord
100
AcDbTextStyleTableRecord
  2
Standard
 70
     0
 40
0.0
 41
1.0
 50
0.0
 71
     0
 42
3.5
  3
txt
  4

  0
ENDTAB
  0
TABLE
  2
VIEW
  5
6
330
0
100
AcDbSymbolTable
 70
     0
  0
ENDTAB
  0
TABLE
  2
UCS
  5
7
330
0
100
AcDbSymbolTable
 70
     0
  0
ENDTAB
  0
TABLE
  2
APPID
  5
9
330
0
100
AcDbSymbolTable
 70
     1
  0
APPID
  5
12
330
9
100
AcDbSymbolTableRecord
100
AcDbRegAppTableRecord
  2
ACAD
 70
     0
  0
ENDTAB
  0
TABLE
  2
DIMSTYLE
  5
A
330
0
100
AcDbSymbolTable
 70
     1
100
AcDbDimStyleTable
  0
DIMSTYLE
105
27
330
A
100
AcDbSymbolTableRecord
100
AcDbDimStyleTableRecord
  2
ISO-25
 70
     0
 41
2.5
 42
0.625
 43
3.75
 44
1.25
 73
     0
 74
     0
 77
     1
 78
     8
140
2.5
141
2.5
143
0.0393700787
147
0.625
171
     3
172
     1
178
     0
271
     2
272
     2
274
     3
278
    44
283
     0
284
     8
340
11
  0
ENDTAB
  0
TABLE
  2
BLOCK_RECORD
  5
1
330
0
100
AcDbSymbolTable
 70
     3
  0
BLOCK_RECORD
  5
1F
330
1
100
AcDbSymbolTableRecord
100
AcDbBlockTableRecord
  2
*Model_Space
340
22
  0
BLOCK_RECORD
  5
1B
330
1
100
AcDbSymbolTableRecord
100
AcDbBlockTableRecord
  2
*Paper_Space
340
1E
  0
BLOCK_RECORD
  5
23
330
1
100
AcDbSymbolTableRecord
100
AcDbBlockTableRecord
  2
*Paper_Space0
340
26
  0
BLOCK_RECORD
  5
AF
330
1
100
AcDbSymbolTableRecord
100
AcDbBlockTableRecord
  2
SW_CENTERMARKSYMBOL_0
340
0
102
{BLKREFS
331
BA
102
}
  0
BLOCK_RECORD
  5
C3
330
1
100
AcDbSymbolTableRecord
100
AcDbBlockTableRecord
  2
SW_CENTERMARKSYMBOL_1
340
0
102
{BLKREFS
331
CE
102
}
  0
ENDTAB
  0
ENDSEC
  0
SECTION
  2
BLOCKS
  0
BLOCK
  5
20
330
1F
100
AcDbEntity
  8
0
100
AcDbBlockBegin
  2
*Model_Space
 70
     0
 10
0.0
 20
0.0
 30
0.0
  3
*Model_Space
  1

  0
ENDBLK
  5
21
330
1F
100
AcDbEntity
  8
0
100
AcDbBlockEnd
  0
BLOCK
  5
1C
330
1B
100
AcDbEntity
 67
     1
  8
0
100
AcDbBlockBegin
  2
*Paper_Space
 70
     0
 10
0.0
 20
0.0
 30
0.0
  3
*Paper_Space
  1

  0
ENDBLK
  5
1D
330
1B
100
AcDbEntity
 67
     1
  8
0
100
AcDbBlockEnd
  0
BLOCK
  5
24
330
23
100
AcDbEntity
  8
0
100
AcDbBlockBegin
  2
*Paper_Space0
 70
     0
 10
0.0
 20
0.0
 30
0.0
  3
*Paper_Space0
  1

  0
ENDBLK
  5
25
330
23
100
AcDbEntity
  8
0
100
AcDbBlockEnd
  0
BLOCK
  5
B0
330
AF
100
AcDbEntity
  8
0
100
AcDbBlockBegin
  2
SW_CENTERMARKSYMBOL_0
 70
     0
 10
0.0
 20
0.0
 30
0.0
  3
SW_CENTERMARKSYMBOL_0
  1

  0
LINE
  5
B2
330
AF
100
AcDbEntity
  8
FORMAT
 62
     0
100
AcDbLine
 10
0.0
 20
0.0
 30
0.0
 11
0.0
 21
2.5
 31
0.0
  0
LINE
  5
B3
330
AF
100
AcDbEntity
  8
FORMAT
 62
     0
100
AcDbLine
 10
0.0
 20
0.0
 30
0.0
 11
-2.5
 21
0.0
 31
0.0
  0
LINE
  5
B4
330
AF
100
AcDbEntity
  8
FORMAT
 62
     0
100
AcDbLine
 10
0.0
 20
0.0
 30
0.0
 11
0.0
 21
-2.5
 31
0.0
  0
LINE
  5
B5
330
AF
100
AcDbEntity
  8
FORMAT
 62
     0
100
AcDbLine
 10
0.0
 20
0.0
 30
0.0
 11
2.5
 21
0.0
 31
0.0
  0
LINE
  5
B6
330
AF
100
AcDbEntity
  8
FORMAT
 62
     0
100
AcDbLine
 10
0.0
 20
5.0
 30
0.0
 11
0.0
 21
15.0
 31
0.0
  0
LINE
  5
B7
330
AF
100
AcDbEntity
  8
FORMAT
 62
     0
100
AcDbLine
 10
-5.0
 20
0.0
 30
0.0
 11
-15.0
 21
0.0
 31
0.0
  0
LINE
  5
B8
330
AF
100
AcDbEntity
  8
FORMAT
 62
     0
100
AcDbLine
 10
0.0
 20
-5.0
 30
0.0
 11
0.0
 21
-15.0
 31
0.0
  0
LINE
  5
B9
330
AF
100
AcDbEntity
  8
FORMAT
 62
     0
100
AcDbLine
 10
5.0
 20
0.0
 30
0.0
 11
15.0
 21
0.0
 31
0.0
  0
ENDBLK
  5
B1
330
AF
100
AcDbEntity
  8
0
100
AcDbBlockEnd
  0
BLOCK
  5
C4
330
C3
100
AcDbEntity
  8
0
100
AcDbBlockBegin
  2
SW_CENTERMARKSYMBOL_1
 70
     0
 10
0.0
 20
0.0
 30
0.0
  3
SW_CENTERMARKSYMBOL_1
  1

  0
LINE
  5
C6
330
C3
100
AcDbEntity
  8
FORMAT
 62
     0
100
AcDbLine
 10
0.0
 20
0.0
 30
0.0
 11
0.0
 21
2.5
 31
0.0
  0
LINE
  5
C7
330
C3
100
AcDbEntity
  8
FORMAT
 62
     0
100
AcDbLine
 10
0.0
 20
0.0
 30
0.0
 11
-2.5
 21
0.0
 31
0.0
  0
LINE
  5
C8
330
C3
100
AcDbEntity
  8
FORMAT
 62
     0
100
AcDbLine
 10
0.0
 20
0.0
 30
0.0
 11
0.0
 21
-2.5
 31
0.0
  0
LINE
  5
C9
330
C3
100
AcDbEntity
  8
FORMAT
 62
     0
100
AcDbLine
 10
0.0
 20
0.0
 30
0.0
 11
2.5
 21
0.0
 31
0.0
  0
LINE
  5
CA
330
C3
100
AcDbEntity
  8
FORMAT
 62
     0
100
AcDbLine
 10
0.0
 20
5.0
 30
0.0
 11
0.0
 21
15.0
 31
0.0
  0
LINE
  5
CB
330
C3
100
AcDbEntity
  8
FORMAT
 62
     0
100
AcDbLine
 10
-5.0
 20
0.0
 30
0.0
 11
-15.0
 21
0.0
 31
0.0
  0
LINE
  5
CC
330
C3
100
AcDbEntity
  8
FORMAT
 62
     0
100
AcDbLine
 10
0.0
 20
-5.0
 30
0.0
 11
0.0
 21
-15.0
 31
0.0
  0
LINE
  5
CD
330
C3
100
AcDbEntity
  8
FORMAT
 62
     0
100
AcDbLine
 10
5.0
 20
0.0
 30
0.0
 11
15.0
 21
0.0
 31
0.0
  0
ENDBLK
  5
C5
330
C3
100
AcDbEntity
  8
0
100
AcDbBlockEnd
  0
ENDSEC
  0
SECTION
  2
ENTITIES
  0
LINE
  5
83
330
1F
100
AcDbEntity
  8
0
  6
Continuous
 62
     7
370
    25
100
AcDbLine
 10
110.2230374372
 20
114.2240791537
 30
0.0
 11
110.2230374372
 21
46.4017494537
 31
0.0
  0
LINE
  5
84
330
1F
100
AcDbEntity
  8
0
  6
Continuous
 62
     7
370
    25
100
AcDbLine
 10
135.2230378098
 20
46.4017494537
 30
0.0
 11
135.2230378098
 21
114.2240791537
 31
0.0
  0
ARC
  5
85
330
1F
100
AcDbEntity
  8
0
  6
Continuous
 62
     7
370
    25
100
AcDbCircle
 10
135.2230376235
 20
114.224079924
 30
0.0
 40
25.0
100
AcDbArc
 50
135.0
 51
180.0
  0
LINE
  5
86
330
1F
100
AcDbEntity
  8
0
  6
Continuous
 62
     7
370
    25
100
AcDbLine
 10
165.8842025927
 20
180.2405818321
 30
0.0
 11
117.5453679307
 21
131.9017513611
 31
0.0
  0
LINE
  5
87
330
1F
100
AcDbEntity
  8
0
  6
Continuous
 62
     7
370
    25
100
AcDbLine
 10
135.2230378098
 20
114.2240791537
 30
0.0
 11
183.5618710748
 21
162.5629170753
 31
0.0
  0
LINE
  5
88
330
1F
100
AcDbEntity
  8
0
  6
Continuous
 62
     7
370
    25
100
AcDbLine
 10
122.7230376235
 20
46.4017494537
 30
0.0
 11
135.2230378098
 21
46.4017494537
 31
0.0
  0
LINE
  5
89
330
1F
100
AcDbEntity
  8
0
  6
Continuous
 62
     7
370
    25
100
AcDbLine
 10
110.2230374372
 20
46.4017494537
 30
0.0
 11
122.7230376235
 21
46.4017494537
 31
0.0
  0
LWPOLYLINE
  5
8A
330
1F
100
AcDbEntity
  8
0
  6
Continuous
 62
     7
370
    25
100
AcDbPolyline
 90
       18
 70
   128
 43
0.0
 10
174.7230386964
 20
171.4017494537
 10
175.5385829738
 20
170.586201451
 10
176.347168409
 20
169.7776197411
 10
177.1418994895
 20
168.9828886606
 10
177.9159924618
 20
168.2087956883
 10
178.6628461114
 20
167.4619420387
 10
179.3760827414
 20
166.7487054087
 10
180.0496264032
 20
166.0751580216
 10
180.6777215234
 20
165.4470666267
 10
181.2550148598
 20
164.8697732903
 10
181.7765815786
 20
164.3482102968
 10
182.2379662326
 20
163.8868181922
 10
182.6352386406
 20
163.4895457842
 10
182.9650050632
 20
163.1597830869
 10
183.2244566313
 20
162.9003315188
 10
183.411373072
 20
162.7134113528
 10
183.5241674117
 20
162.6006170131
 10
183.5618710748
 20
162.5629170753
  0
LWPOLYLINE
  5
8B
330
1F
100
AcDbEntity
  8
0
  6
Continuous
 62
     7
370
    25
100
AcDbPolyline
 90
       18
 70
   128
 43
0.0
 10
165.8842025927
 20
180.2405818321
 10
165.9219062558
 20
180.2028818943
 10
166.0347005955
 20
180.090080104
 10
166.2216207615
 20
179.903159938
 10
166.4810686043
 20
179.6437158205
 10
166.8108387521
 20
179.3139531233
 10
167.2081074349
 20
178.9166732647
 10
167.6694958142
 20
178.4552886106
 10
168.1910588077
 20
177.9337330677
 10
168.7683521441
 20
177.3564322807
 10
169.3964509896
 20
176.7283334352
 10
170.0699909261
 20
176.0548009493
 10
170.7832312814
 20
175.3415568687
 10
171.5300812057
 20
174.5947106697
 10
172.304174178
 20
173.8206102468
 10
173.0989052585
 20
173.0258866169
 10
173.907494419
 20
172.2172900059
 10
174.7230386964
 20
171.4017494537
  0
LINE
  5
8C
330
1F
100
AcDbEntity
  8
0
  6
Continuous
 62
     1
370
    25
100
AcDbLine
 10
110.2230374372
 20
114.2240791537
 30
0.0
 11
135.2230378098
 21
114.2240791537
 31
0.0
  0
LWPOLYLINE
  5
8D
330
1F
100
AcDbEntity
  8
0
  6
Continuous
 62
     1
370
    25
100
AcDbPolyline
 90
       36
 70
   128
 43
0.0
 10
117.5453679307
 20
131.9017513611
 10
117.5830729908
 20
131.8640439727
 10
117.6958659335
 20
131.751249633
 10
117.8827847025
 20
131.564329467
 10
118.1422348737
 20
131.3048853494
 10
118.4720022275
 20
130.9751152016
 10
118.8692741698
 20
130.5778427936
 10
119.3306604537
 20
130.1164581396
 10
119.852225077
 20
129.5948951461
 10
120.4295184134
 20
129.0176018097
 10
121.0576149306
 20
128.3895029642
 10
121.7311559149
 20
127.7159630276
 10
122.4443951933
 20
127.0027189471
 10
123.191247475
 20
126.2558727481
 10
123.965340913
 20
125.4817797758
 10
124.760071295
 20
124.6870486953
 10
125.5686581272
 20
123.8784595348
 10
126.3842028702
 20
123.0629115321
 10
127.1997478462
 20
122.24737098
 10
128.0083346783
 20
121.4387818195
 10
128.8030648275
 20
120.644050739
 10
129.5771582655
 20
119.8699577667
 10
130.3240105181
 20
119.1231041171
 10
131.0372494764
 20
118.4098674871
 10
131.7107912755
 20
117.7363275506
 10
132.3388873271
 20
117.1082287051
 10
132.9161806634
 20
116.5309353687
 10
133.4377455196
 20
116.0093723752
 10
133.8991320363
 20
115.5479877211
 10
134.296403513
 20
115.1507153131
 10
134.6261708668
 20
114.8209451653
 10
134.8856205723
 20
114.5614935972
 10
135.072539807
 20
114.3745808818
 10
135.185332284
 20
114.2617865421
 10
135.2230378098
 20
114.2240791537
 10
135.2230378098
 20
114.2240791537
  0
LINE
  5
8E
330
1F
100
AcDbEntity
  8
0
  6
Continuous
 62
     7
370
    25
100
AcDbLine
 10
26.8122016665
 20
171.4017494537
 30
0.0
 11
26.8122016665
 21
123.0629115321
 31
0.0
  0
LINE
  5
8F
330
1F
100
AcDbEntity
  8
0
  6
Continuous
 62
     7
370
    25
100
AcDbLine
 10
51.8122020391
 20
123.0629115321
 30
0.0
 11
51.8122020391
 21
171.4017494537
 31
0.0
  0
LINE
  5
90
330
1F
100
AcDbEntity
  8
0
  6
Continuous
 62
     7
370
    25
100
AcDbLine
 10
26.8122016665
 20
123.0629115321
 30
0.0
 11
26.8122016665
 21
114.2240791537
 31
0.0
  0
LINE
  5
91
330
1F
100
AcDbEntity
  8
0
  6
Continuous
 62
     7
370
    25
100
AcDbLine
 10
51.8122020391
 20
114.2240791537
 30
0.0
 11
51.8122020391
 21
123.0629115321
 31
0.0
  0
LINE
  5
92
330
1F
100
AcDbEntity
  8
0
  6
Continuous
 62
     7
370
    25
100
AcDbLine
 10
26.8122016665
 20
114.2240791537
 30
0.0
 11
26.8122016665
 21
46.4017494537
 31
0.0
  0
LINE
  5
93
330
1F
100
AcDbEntity
  8
0
  6
Continuous
 62
     7
370
    25
100
AcDbLine
 10
51.8122020391
 20
46.4017494537
 30
0.0
 11
51.8122020391
 21
114.2240791537
 31
0.0
  0
LWPOLYLINE
  5
94
330
1F
100
AcDbEntity
  8
0
  6
Continuous
 62
     7
370
    25
100
AcDbPolyline
 90
       69
 70
   128
 43
0.0
 10
26.8122016665
 20
171.4017494537
 10
26.8655245405
 20
170.586201451
 10
27.0250377458
 20
169.7776197411
 10
27.2893815514
 20
168.9828886606
 10
27.6562993628
 20
168.2087956883
 10
28.1226610047
 20
167.4619420387
 10
28.6844878671
 20
166.7487054087
 10
29.3369864327
 20
166.0751580216
 10
30.0745901865
 20
165.4470666267
 10
30.8910061818
 20
164.8697732903
 10
31.7792690572
 20
164.3482102968
 10
32.7317997095
 20
163.8868181922
 10
33.7404723492
 20
163.4895457842
 10
34.7966810901
 20
163.1597830869
 10
35.891414455
 20
162.9003315188
 10
37.0153329083
 20
162.7134113528
 10
38.1588473198
 20
162.6006170131
 10
39.3122018528
 20
162.5629170753
 10
40.4655563858
 20
162.6006170131
 10
41.6090707973
 20
162.7134113528
 10
42.7329892506
 20
162.9003315188
 10
43.8277226154
 20
163.1597830869
 10
44.8839313564
 20
163.4895457842
 10
45.8926039961
 20
163.8868181922
 10
46.8451346484
 20
164.3482102968
 10
47.7333975238
 20
164.8697732903
 10
48.5498135191
 20
165.4470666267
 10
49.2874172729
 20
166.0751580216
 10
49.9399158385
 20
166.7487054087
 10
50.5017427009
 20
167.4619420387
 10
50.9681043428
 20
168.2087956883
 10
51.3350221541
 20
168.9828886606
 10
51.5993659598
 20
169.7776197411
 10
51.758879165
 20
170.586201451
 10
51.8122020391
 20
171.4017494537
 10
51.758879165
 20
172.2172900059
 10
51.5993659598
 20
173.0258866169
 10
51.3350221541
 20
173.8206102468
 10
50.9681043428
 20
174.5947106697
 10
50.5017427009
 20
175.3415568687
 10
49.9399158385
 20
176.0548009493
 10
49.2874172729
 20
176.7283334352
 10
48.5498135191
 20
177.3564322807
 10
47.7333975238
 20
177.9337330677
 10
46.8451346484
 20
178.4552886106
 10
45.8926039961
 20
178.9166732647
 10
44.8839313564
 20
179.3139531233
 10
43.8277226154
 20
179.6437158205
 10
42.7329892506
 20
179.903159938
 10
41.6090707973
 20
180.090080104
 10
40.4655563858
 20
180.2028818943
 10
39.3122018528
 20
180.2405818321
 10
38.1588473198
 20
180.2028818943
 10
37.0153329083
 20
180.090080104
 10
35.891414455
 20
179.903159938
 10
34.7966810901
 20
179.6437158205
 10
33.7404723492
 20
179.3139531233
 10
32.7317997095
 20
178.9166732647
 10
31.7792690572
 20
178.4552886106
 10
30.8910061818
 20
177.9337330677
 10
30.0745901865
 20
177.3564322807
 10
29.3369864327
 20
176.7283334352
 10
28.6844878671
 20
176.0548009493
 10
28.1226610047
 20
175.3415568687
 10
27.6562993628
 20
174.5947106697
 10
27.2893815514
 20
173.8206102468
 10
27.0250377458
 20
173.0258866169
 10
26.8655245405
 20
172.2172900059
 10
26.8122016665
 20
171.4017494537
  0
LWPOLYLINE
  5
95
330
1F
100
AcDbEntity
  8
0
  6
Continuous
 62
     7
370
    25
100
AcDbPolyline
 90
       60
 70
   128
 43
0.0
 10
29.8122021583
 20
171.4017494537
 10
29.8660214272
 20
172.1157832958
 10
30.0268692177
 20
172.8217109062
 10
30.2929247943
 20
173.5115601637
 10
30.6611716029
 20
174.1775079586
 10
31.1274382499
 20
174.8119994022
 10
31.6864413422
 20
175.4078521349
 10
32.3318474208
 20
175.9583159305
 10
33.0563437407
 20
176.4571472027
 10
33.8517216247
 20
176.8987133123
 10
34.7089686644
 20
177.277977667
 10
35.6183720966
 20
177.5906785347
 10
36.5696284667
 20
177.8332396366
 10
37.5519589967
 20
178.0029489614
 10
38.5542338578
 20
178.0978544571
 10
39.5650967936
 20
178.1168832399
 10
40.5730943409
 20
178.0598266937
 10
41.5668055163
 20
177.9273404695
 10
42.5349709791
 20
177.7209146835
 10
43.4666213793
 20
177.442888818
 10
44.3512004082
 20
177.096421919
 10
45.178685638
 20
176.685418091
 10
45.9397014444
 20
176.2145562984
 10
46.6256247115
 20
175.689171157
 10
47.2286840182
 20
175.115193329
 10
47.7420467165
 20
174.4991495229
 10
48.1598957655
 20
173.8479985811
 10
48.4774963212
 20
173.1691463806
 10
48.6912516159
 20
172.4702670194
 10
48.7987374169
 20
171.7592730142
 10
48.7987374169
 20
171.0442258932
 10
48.6912516159
 20
170.3332393386
 10
48.4774963212
 20
169.6343525268
 10
48.1598957655
 20
168.9554928757
 10
47.7420467165
 20
168.3043568351
 10
47.2286840182
 20
167.6883055784
 10
46.6256247115
 20
167.114335201
 10
45.9397014444
 20
166.588942609
 10
45.178685638
 20
166.1180808164
 10
44.3512004082
 20
165.707084439
 10
43.4666213793
 20
165.3606100895
 10
42.5349709791
 20
165.0825842239
 10
41.5668055163
 20
164.8761584379
 10
40.5730943409
 20
164.7436647631
 10
39.5650967936
 20
164.6866156675
 10
38.5542338578
 20
164.7056519009
 10
37.5519589967
 20
164.8005573966
 10
36.5696284667
 20
164.9702518203
 10
35.6183720966
 20
165.2128203727
 10
34.7089686644
 20
165.5255137898
 10
33.8517216247
 20
165.9047855951
 10
33.0563437407
 20
166.3463442542
 10
32.3318474208
 20
166.8451829769
 10
31.6864413422
 20
167.3956467726
 10
31.1274382499
 20
167.9914995052
 10
30.6611716029
 20
168.6259909488
 10
30.2929247943
 20
169.2919312932
 10
30.0268692177
 20
169.9817805506
 10
29.8660214272
 20
170.6877230622
 10
29.8122021583
 20
171.4017494537
  0
LINE
  5
96
330
1F
100
AcDbEntity
  8
0
  6
Continuous
 62
     7
370
    25
100
AcDbLine
 10
26.8122016665
 20
46.4017494537
 30
0.0
 11
51.8122020391
 21
46.4017494537
 31
0.0
  0
LWPOLYLINE
  5
97
330
1F
100
AcDbEntity
  8
0
  6
Continuous
 62
     1
370
    25
100
AcDbPolyline
 90
       18
 70
   128
 43
0.0
 10
39.3122018528
 20
114.2240791537
 10
40.4655563858
 20
114.2617865421
 10
41.6090707973
 20
114.3745808818
 10
42.7329892506
 20
114.5614935972
 10
43.8277226154
 20
114.8209451653
 10
44.8839313564
 20
115.1507153131
 10
45.8926039961
 20
115.5479877211
 10
46.8451346484
 20
116.0093723752
 10
47.7333975238
 20
116.5309353687
 10
48.5498135191
 20
117.1082287051
 10
49.2874172729
 20
117.7363275506
 10
49.9399158385
 20
118.4098674871
 10
50.5017427009
 20
119.1231041171
 10
50.9681043428
 20
119.8699577667
 10
51.3350221541
 20
120.644050739
 10
51.5993659598
 20
121.4387818195
 10
51.758879165
 20
122.24737098
 10
51.8122020391
 20
123.0629115321
  0
LWPOLYLINE
  5
98
330
1F
100
AcDbEntity
  8
0
  6
Continuous
 62
     1
370
    25
100
AcDbPolyline
 90
       18
 70
   128
 43
0.0
 10
26.8122016665
 20
123.0629115321
 10
26.8655245405
 20
122.24737098
 10
27.0250377458
 20
121.4387818195
 10
27.2893815514
 20
120.644050739
 10
27.6562993628
 20
119.8699577667
 10
28.1226610047
 20
119.1231041171
 10
28.6844878671
 20
118.4098674871
 10
29.3369864327
 20
117.7363275506
 10
30.0745901865
 20
117.1082287051
 10
30.8910061818
 20
116.5309353687
 10
31.7792690572
 20
116.0093723752
 10
32.7317997095
 20
115.5479877211
 10
33.7404723492
 20
115.1507153131
 10
34.7966810901
 20
114.8209451653
 10
35.891414455
 20
114.5614935972
 10
37.0153329083
 20
114.3745808818
 10
38.1588473198
 20
114.2617865421
 10
39.3122018528
 20
114.2240791537
  0
LINE
  5
99
330
1F
100
AcDbEntity
  8
0
  6
Continuous
 62
     1
370
    25
100
AcDbLine
 10
39.3122018528
 20
114.2240791537
 30
0.0
 11
51.8122020391
 21
114.2240791537
 31
0.0
  0
LINE
  5
9A
330
1F
100
AcDbEntity
  8
0
  6
Continuous
 62
     1
370
    25
100
AcDbLine
 10
26.8122016665
 20
114.2240791537
 30
0.0
 11
39.3122018528
 21
114.2240791537
 31
0.0
  0
LINE
  5
9B
330
1F
100
AcDbEntity
  8
0
  6
Continuous
 62
     7
370
    25
100
AcDbLine
 10
224.2440029115
 20
114.2240791537
 30
0.0
 11
224.2440029115
 21
46.4017494537
 31
0.0
  0
LINE
  5
9C
330
1F
100
AcDbEntity
  8
0
  6
Continuous
 62
     7
370
    25
100
AcDbLine
 10
249.244003284
 20
46.4017494537
 30
0.0
 11
249.244003284
 21
114.2240791537
 31
0.0
  0
LINE
  5
9D
330
1F
100
AcDbEntity
  8
0
  6
Continuous
 62
     7
370
    25
100
AcDbLine
 10
249.244003284
 20
114.2240791537
 30
0.0
 11
249.244003284
 21
123.0629115321
 31
0.0
  0
LINE
  5
9E
330
1F
100
AcDbEntity
  8
0
  6
Continuous
 62
     7
370
    25
100
AcDbLine
 10
224.2440029115
 20
123.0629115321
 30
0.0
 11
224.2440029115
 21
114.2240791537
 31
0.0
  0
LINE
  5
9F
330
1F
100
AcDbEntity
  8
0
  6
Continuous
 62
     7
370
    25
100
AcDbLine
 10
224.2440029115
 20
171.4017494537
 30
0.0
 11
224.2440029115
 21
123.0629115321
 31
0.0
  0
LINE
  5
A0
330
1F
100
AcDbEntity
  8
0
  6
Continuous
 62
     7
370
    25
100
AcDbLine
 10
249.244003284
 20
123.0629115321
 30
0.0
 11
249.244003284
 21
171.4017494537
 31
0.0
  0
LINE
  5
A1
330
1F
100
AcDbEntity
  8
0
  6
Continuous
 62
     7
370
    25
100
AcDbLine
 10
224.2440029115
 20
46.4017494537
 30
0.0
 11
249.244003284
 21
46.4017494537
 31
0.0
  0
LWPOLYLINE
  5
A2
330
1F
100
AcDbEntity
  8
0
  6
Continuous
 62
     7
370
    25
100
AcDbPolyline
 90
       35
 70
   128
 43
0.0
 10
224.2440029115
 20
171.4017494537
 10
224.2973257855
 20
172.2172900059
 10
224.4568389908
 20
173.0258866169
 10
224.7211827964
 20
173.8206102468
 10
225.0881006077
 20
174.5947106697
 10
225.5544622496
 20
175.3415568687
 10
226.116289112
 20
176.0548009493
 10
226.7687876776
 20
176.7283334352
 10
227.5063914314
 20
177.3564322807
 10
228.3228074268
 20
177.9337330677
 10
229.2110703022
 20
178.4552886106
 10
230.1636009545
 20
178.9166732647
 10
231.1722735942
 20
179.3139531233
 10
232.2284823351
 20
179.6437158205
 10
233.3232157
 20
179.903159938
 10
234.4471341532
 20
180.090080104
 10
235.5906485647
 20
180.2028818943
 10
236.7440030978
 20
180.2405818321
 10
237.8973576308
 20
180.2028818943
 10
239.0408720423
 20
180.090080104
 10
240.1647904955
 20
179.903159938
 10
241.2595238604
 20
179.6437158205
 10
242.3157326013
 20
179.3139531233
 10
243.3244052411
 20
178.9166732647
 10
244.2769358933
 20
178.4552886106
 10
245.1651987687
 20
177.9337330677
 10
245.9816147641
 20
177.3564322807
 10
246.7192185179
 20
176.7283334352
 10
247.3717170835
 20
176.0548009493
 10
247.9335439459
 20
175.3415568687
 10
248.3999055878
 20
174.5947106697
 10
248.7668233991
 20
173.8206102468
 10
249.0311672047
 20
173.0258866169
 10
249.19068041
 20
172.2172900059
 10
249.244003284
 20
171.4017494537
  0
LINE
  5
A3
330
1F
100
AcDbEntity
  8
0
  6
Continuous
 62
     1
370
    25
100
AcDbLine
 10
224.2440029115
 20
114.2240791537
 30
0.0
 11
249.244003284
 21
114.2240791537
 31
0.0
  0
LWPOLYLINE
  5
A4
330
1F
100
AcDbEntity
  8
0
  6
Continuous
 62
     1
370
    25
100
AcDbPolyline
 90
       35
 70
   128
 43
0.0
 10
224.2440029115
 20
123.0629115321
 10
224.2973257855
 20
123.8784595348
 10
224.4568389908
 20
124.6870486953
 10
224.7211827964
 20
125.4817797758
 10
225.0881006077
 20
126.2558727481
 10
225.5544622496
 20
127.0027189471
 10
226.116289112
 20
127.7159630276
 10
226.7687876776
 20
128.3895029642
 10
227.5063914314
 20
129.0176018097
 10
228.3228074268
 20
129.5948951461
 10
229.2110703022
 20
130.1164581396
 10
230.1636009545
 20
130.5778427936
 10
231.1722735942
 20
130.9751152016
 10
232.2284823351
 20
131.3048853494
 10
233.3232157
 20
131.564329467
 10
234.4471341532
 20
131.751249633
 10
235.5906485647
 20
131.8640439727
 10
236.7440030978
 20
131.9017513611
 10
237.8973576308
 20
131.8640439727
 10
239.0408720423
 20
131.751249633
 10
240.1647904955
 20
131.564329467
 10
241.2595238604
 20
131.3048853494
 10
242.3157326013
 20
130.9751152016
 10
243.3244052411
 20
130.5778427936
 10
244.2769358933
 20
130.1164581396
 10
245.1651987687
 20
129.5948951461
 10
245.9816147641
 20
129.0176018097
 10
246.7192185179
 20
128.3895029642
 10
247.3717170835
 20
127.7159630276
 10
247.9335439459
 20
127.0027189471
 10
248.3999055878
 20
126.2558727481
 10
248.7668233991
 20
125.4817797758
 10
249.0311672047
 20
124.6870486953
 10
249.19068041
 20
123.8784595348
 10
249.244003284
 20
123.0629115321
  0
LINE
  5
A5
330
1F
100
AcDbEntity
  8
0
  6
Continuous
 62
     7
370
    25
100
AcDbLine
 10
174.7230386964
 20
248.8354632636
 30
0.0
 11
126.3842028702
 21
248.8354632636
 31
0.0
  0
LINE
  5
A6
330
1F
100
AcDbEntity
  8
0
  6
Continuous
 62
     7
370
    25
100
AcDbLine
 10
126.3842028702
 20
223.8354628911
 30
0.0
 11
174.7230386964
 21
223.8354628911
 31
0.0
  0
LINE
  5
A7
330
1F
100
AcDbEntity
  8
0
  6
Continuous
 62
     7
370
    25
100
AcDbLine
 10
126.3842028702
 20
248.8354632636
 30
0.0
 11
122.7230376235
 21
248.8354632636
 31
0.0
  0
LINE
  5
A8
330
1F
100
AcDbEntity
  8
0
  6
Continuous
 62
     7
370
    25
100
AcDbLine
 10
122.7230376235
 20
223.8354628911
 30
0.0
 11
126.3842028702
 21
223.8354628911
 31
0.0
  0
CIRCLE
  5
A9
330
1F
100
AcDbEntity
  8
0
  6
Continuous
 62
     7
370
    25
100
AcDbCircle
 10
122.7230376235
 20
236.3354630774
 30
0.0
 40
9.5
  0
CIRCLE
  5
AA
330
1F
100
AcDbEntity
  8
0
  6
Continuous
 62
     7
370
    25
100
AcDbCircle
 10
122.7230376235
 20
236.3354630774
 30
0.0
 40
12.50000000000003
  0
LWPOLYLINE
  5
AB
330
1F
100
AcDbEntity
  8
0
  6
Continuous
 62
     7
370
    25
100
AcDbPolyline
 90
       36
 70
   128
 43
0.0
 10
174.7230386964
 20
248.8354632636
 10
175.5385829738
 20
248.7821403896
 10
176.347168409
 20
248.6226271843
 10
177.1418994895
 20
248.3582833787
 10
177.9159924618
 20
247.9913655674
 10
178.6628461114
 20
247.5250039255
 10
179.3760827414
 20
246.9631770631
 10
180.0496264032
 20
246.3106784975
 10
180.6777215234
 20
245.5730747437
 10
181.2550148598
 20
244.7566587483
 10
181.7765815786
 20
243.868395873
 10
182.2379662326
 20
242.9158652207
 10
182.6352386406
 20
241.9071925809
 10
182.9650050632
 20
240.85098384
 10
183.2244566313
 20
239.7562504751
 10
183.411373072
 20
238.6323320219
 10
183.5241674117
 20
237.4888176104
 10
183.5618710748
 20
236.3354630774
 10
183.5241674117
 20
235.1821085444
 10
183.411373072
 20
234.0385941328
 10
183.2244566313
 20
232.9146756796
 10
182.9650050632
 20
231.8199423147
 10
182.6352386406
 20
230.7637335738
 10
182.2379662326
 20
229.7550609341
 10
181.7765815786
 20
228.8025302818
 10
181.2550148598
 20
227.9142674064
 10
180.6777215234
 20
227.0978514111
 10
180.0496264032
 20
226.3602476572
 10
179.3760827414
 20
225.7077490916
 10
178.6628461114
 20
225.1459222292
 10
177.9159924618
 20
224.6795605874
 10
177.1418994895
 20
224.312642776
 10
176.347168409
 20
224.0482989704
 10
175.5385829738
 20
223.8887857651
 10
174.7230386964
 20
223.8354628911
 10
174.7230386964
 20
223.8354628911
  0
LWPOLYLINE
  5
AC
330
1F
100
AcDbEntity
  8
0
  6
Continuous
 62
     1
370
    25
100
AcDbPolyline
 90
       18
 70
   128
 43
0.0
 10
135.2230378098
 20
236.3354630774
 10
135.185332284
 20
235.1821085444
 10
135.072539807
 20
234.0385941328
 10
134.8856205723
 20
232.9146756796
 10
134.6261708668
 20
231.8199423147
 10
134.296403513
 20
230.7637335738
 10
133.8991320363
 20
229.7550609341
 10
133.4377455196
 20
228.8025302818
 10
132.9161806634
 20
227.9142674064
 10
132.3388873271
 20
227.0978514111
 10
131.7107912755
 20
226.3602476572
 10
131.0372494764
 20
225.7077490916
 10
130.3240105181
 20
225.1459222292
 10
129.5771582655
 20
224.6795605874
 10
128.8030648275
 20
224.312642776
 10
128.0083346783
 20
224.0482989704
 10
127.1997478462
 20
223.8887857651
 10
126.3842028702
 20
223.8354628911
  0
LWPOLYLINE
  5
AD
330
1F
100
AcDbEntity
  8
0
  6
Continuous
 62
     1
370
    25
100
AcDbPolyline
 90
       18
 70
   128
 43
0.0
 10
126.3842028702
 20
248.8354632636
 10
127.1997478462
 20
248.7821403896
 10
128.0083346783
 20
248.6226271843
 10
128.8030648275
 20
248.3582833787
 10
129.5771582655
 20
247.9913655674
 10
130.3240105181
 20
247.5250039255
 10
131.0372494764
 20
246.9631770631
 10
131.7107912755
 20
246.3106784975
 10
132.3388873271
 20
245.5730747437
 10
132.9161806634
 20
244.7566587483
 10
133.4377455196
 20
243.868395873
 10
133.8991320363
 20
242.9158652207
 10
134.296403513
 20
241.9071925809
 10
134.6261708668
 20
240.85098384
 10
134.8856205723
 20
239.7562504751
 10
135.072539807
 20
238.6323320219
 10
135.185332284
 20
237.4888176104
 10
135.2230378098
 20
236.3354630774
  0
LWPOLYLINE
  5
AE
330
1F
100
AcDbEntity
  8
0
  6
Continuous
 62
     1
370
    25
100
AcDbPolyline
 90
       27
 70
   128
 43
0.0
 10
124.867698657
 20
245.5902148044
 10
124.2743879693
 20
245.3547401359
 10
123.6084440161
 20
244.9864933273
 10
122.9739505352
 20
244.5202266803
 10
122.378096522
 20
243.9612235879
 10
121.8276333084
 20
243.3158175094
 10
121.3287979035
 20
242.5913211895
 10
120.8872421549
 20
241.7959433054
 10
120.5079693018
 20
240.9386962658
 10
120.1952763504
 20
240.0292928336
 10
119.9527064009
 20
239.0780364634
 10
119.7830080191
 20
238.0957059335
 10
119.6881039205
 20
237.0934310724
 10
119.669069084
 20
236.0825681366
 10
119.7261193438
 20
235.0745705893
 10
119.8586085948
 20
234.0808594139
 10
120.0650353121
 20
233.1126939511
 10
120.343060712
 20
232.1810435509
 10
120.6895345959
 20
231.296464522
 10
121.100531439
 20
230.4689792922
 10
121.5713943957
 20
229.7079634858
 10
122.0967883265
 20
229.0220402187
 10
122.6707604465
 20
228.4189809119
 10
123.2868073412
 20
227.9056182137
 10
123.9379489698
 20
227.4877691647
 10
124.6168075732
 20
227.170168609
 10
124.867698657
 20
227.0807113504
  0
INSERT
  5
BA
330
1F
100
AcDbEntity
  8
FORMAT
 62
     7
100
AcDbBlockReference
  2
SW_CENTERMARKSYMBOL_0
 10
122.7230376235
 20
236.3354630774
 30
0.0
  0
LINE
  5
BB
330
1F
100
AcDbEntity
  8
0
  6
Continuous
 62
     7
370
    25
100
AcDbLine
 10
174.7230386964
 20
-25.5560746202
 30
0.0
 11
126.3842028702
 21
-25.5560746202
 31
0.0
  0
LINE
  5
BC
330
1F
100
AcDbEntity
  8
0
  6
Continuous
 62
     7
370
    25
100
AcDbLine
 10
126.3842028702
 20
-50.5560749927
 30
0.0
 11
174.7230386964
 21
-50.5560749927
 31
0.0
  0
LINE
  5
BD
330
1F
100
AcDbEntity
  8
0
  6
Continuous
 62
     7
370
    25
100
AcDbLine
 10
122.7230376235
 20
-50.5560749927
 30
0.0
 11
126.3842028702
 21
-50.5560749927
 31
0.0
  0
LINE
  5
BE
330
1F
100
AcDbEntity
  8
0
  6
Continuous
 62
     7
370
    25
100
AcDbLine
 10
126.3842028702
 20
-25.5560746202
 30
0.0
 11
122.7230376235
 21
-25.5560746202
 31
0.0
  0
LWPOLYLINE
  5
BF
330
1F
100
AcDbEntity
  8
0
  6
Continuous
 62
     7
370
    25
100
AcDbPolyline
 90
       69
 70
   128
 43
0.0
 10
174.7230386964
 20
-50.5560749927
 10
175.5385829738
 20
-50.5027521187
 10
176.347168409
 20
-50.3432389134
 10
177.1418994895
 20
-50.0788951078
 10
177.9159924618
 20
-49.7119772965
 10
178.6628461114
 20
-49.2456156546
 10
179.3760827414
 20
-48.6837887922
 10
180.0496264032
 20
-48.0312902266
 10
180.6777215234
 20
-47.2936864728
 10
181.2550148598
 20
-46.4772704774
 10
181.7765815786
 20
-45.5890076021
 10
182.2379662326
 20
-44.6364769498
 10
182.6352386406
 20
-43.62780431
 10
182.9650050632
 20
-42.5715955691
 10
183.2244566313
 20
-41.4768622042
 10
183.411373072
 20
-40.352943751
 10
183.5241674117
 20
-39.2094293395
 10
183.5618710748
 20
-38.0560748065
 10
183.5241674117
 20
-36.9027202735
 10
183.411373072
 20
-35.7592058619
 10
183.2244566313
 20
-34.6352874087
 10
182.9650050632
 20
-33.5405540438
 10
182.6352386406
 20
-32.4843453029
 10
182.2379662326
 20
-31.4756726632
 10
181.7765815786
 20
-30.5231420109
 10
181.2550148598
 20
-29.6348791355
 10
180.6777215234
 20
-28.8184631402
 10
180.0496264032
 20
-28.0808593863
 10
179.3760827414
 20
-27.4283608207
 10
178.6628461114
 20
-26.8665339583
 10
177.9159924618
 20
-26.4001723165
 10
177.1418994895
 20
-26.0332545051
 10
176.347168409
 20
-25.7689106995
 10
175.5385829738
 20
-25.6093974942
 10
174.7230386964
 20
-25.5560746202
 10
173.907494419
 20
-25.6093974942
 10
173.0989052585
 20
-25.7689106995
 10
172.304174178
 20
-26.0332545051
 10
171.5300812057
 20
-26.4001723165
 10
170.7832312814
 20
-26.8665339583
 10
170.0699909261
 20
-27.4283608207
 10
169.3964509896
 20
-28.0808593863
 10
168.7683521441
 20
-28.8184631402
 10
168.1910588077
 20
-29.6348791355
 10
167.6694958142
 20
-30.5231420109
 10
167.2081074349
 20
-31.4756726632
 10
166.8108387521
 20
-32.4843453029
 10
166.4810686043
 20
-33.5405540438
 10
166.2216207615
 20
-34.6352874087
 10
166.0347005955
 20
-35.7592058619
 10
165.9219062558
 20
-36.9027202735
 10
165.8842025927
 20
-38.0560748065
 10
165.9219062558
 20
-39.2094293395
 10
166.0347005955
 20
-40.352943751
 10
166.2216207615
 20
-41.4768622042
 10
166.4810686043
 20
-42.5715955691
 10
166.8108387521
 20
-43.62780431
 10
167.2081074349
 20
-44.6364769498
 10
167.6694958142
 20
-45.5890076021
 10
168.1910588077
 20
-46.4772704774
 10
168.7683521441
 20
-47.2936864728
 10
169.3964509896
 20
-48.0312902266
 10
170.0699909261
 20
-48.6837887922
 10
170.7832312814
 20
-49.2456156546
 10
171.5300812057
 20
-49.7119772965
 10
172.304174178
 20
-50.0788951078
 10
173.0989052585
 20
-50.3432389134
 10
173.907494419
 20
-50.5027521187
 10
174.7230386964
 20
-50.5560749927
  0
LWPOLYLINE
  5
C0
330
1F
100
AcDbEntity
  8
0
  6
Continuous
 62
     7
370
    25
100
AcDbPolyline
 90
       60
 70
   128
 43
0.0
 10
174.7230386964
 20
-47.556074501
 10
174.0090085796
 20
-47.5022552321
 10
173.3030735186
 20
-47.3414074415
 10
172.6132242611
 20
-47.075351865
 10
171.9472801915
 20
-46.7071050564
 10
171.3127850226
 20
-46.2408384094
 10
170.7169322899
 20
-45.681835317
 10
170.1664684943
 20
-45.0364292385
 10
169.6676334969
 20
-44.3119329186
 10
169.2260785631
 20
-43.5165550345
 10
168.8468030325
 20
-42.6593079949
 10
168.5341096154
 20
-41.7499045627
 10
168.2915410629
 20
-40.7986481925
 10
168.121842914
 20
-39.8163176626
 10
168.0269374183
 20
-38.8140428015
 10
168.0079049102
 20
-37.8031798657
 10
168.0649540058
 20
-36.7951823184
 10
168.1974439553
 20
-35.801471143
 10
168.4038697413
 20
-34.8333056802
 10
168.6818956069
 20
-33.90165528
 10
169.0283699564
 20
-33.0170762511
 10
169.4393663338
 20
-32.1895910213
 10
169.9102281264
 20
-31.4285752149
 10
170.4356244436
 20
-30.7426519478
 10
171.0095948211
 20
-30.139592641
 10
171.6256423524
 20
-29.6262299428
 10
172.2767821184
 20
-29.2083808938
 10
172.9556417695
 20
-28.8907803381
 10
173.654524856
 20
-28.6770250434
 10
174.3655151359
 20
-28.5695392424
 10
175.0805585316
 20
-28.5695392424
 10
175.7915488115
 20
-28.6770250434
 10
176.490431898
 20
-28.8907803381
 10
177.1692915491
 20
-29.2083808938
 10
177.820431315
 20
-29.6262299428
 10
178.4364788464
 20
-30.139592641
 10
179.0104529491
 20
-30.7426519478
 10
179.5358455411
 20
-31.4285752149
 10
180.0067073337
 20
-32.1895910213
 10
180.4177074364
 20
-33.0170762511
 10
180.7641780606
 20
-33.90165528
 10
181.0422039262
 20
-34.8333056802
 10
181.2486334375
 20
-35.801471143
 10
181.3811196617
 20
-36.7951823184
 10
181.4381724826
 20
-37.8031798657
 10
181.4191362492
 20
-38.8140428015
 10
181.3242307535
 20
-39.8163176626
 10
181.1545326046
 20
-40.7986481925
 10
180.9119640521
 20
-41.7499045627
 10
180.599270635
 20
-42.6593079949
 10
180.2199988297
 20
-43.5165550345
 10
179.7784438959
 20
-44.3119329186
 10
179.2796088985
 20
-45.0364292385
 10
178.7291451028
 20
-45.681835317
 10
178.1332886449
 20
-46.2408384094
 10
177.4987972013
 20
-46.7071050564
 10
176.8328531316
 20
-47.075351865
 10
176.1430038742
 20
-47.3414074415
 10
175.4370650879
 20
-47.5022552321
 10
174.7230386964
 20
-47.556074501
  0
ARC
  5
C1
330
1F
100
AcDbEntity
  8
0
  6
Continuous
 62
     7
370
    25
100
AcDbCircle
 10
122.7230376235
 20
-38.0560748065
 30
0.0
 40
12.49999999999999
100
AcDbArc
 50
90.0
 51
270.0
  0
LWPOLYLINE
  5
C2
330
1F
100
AcDbEntity
  8
0
  6
Continuous
 62
     1
370
    25
100
AcDbPolyline
 90
       35
 70
   128
 43
0.0
 10
126.3842028702
 20
-25.5560746202
 10
125.5686581272
 20
-25.6093974942
 10
124.760071295
 20
-25.7689106995
 10
123.965340913
 20
-26.0332545051
 10
123.191247475
 20
-26.4001723165
 10
122.4443951933
 20
-26.8665339583
 10
121.7311559149
 20
-27.4283608207
 10
121.0576149306
 20
-28.0808593863
 10
120.4295184134
 20
-28.8184631402
 10
119.852225077
 20
-29.6348791355
 10
119.3306604537
 20
-30.5231420109
 10
118.8692741698
 20
-31.4756726632
 10
118.4720022275
 20
-32.4843453029
 10
118.1422348737
 20
-33.5405540438
 10
117.8827847025
 20
-34.6352874087
 10
117.6958659335
 20
-35.7592058619
 10
117.5830729908
 20
-36.9027202735
 10
117.5453679307
 20
-38.0560748065
 10
117.5830729908
 20
-39.2094293395
 10
117.6958659335
 20
-40.352943751
 10
117.8827847025
 20
-41.4768622042
 10
118.1422348737
 20
-42.5715955691
 10
118.4720022275
 20
-43.62780431
 10
118.8692741698
 20
-44.6364769498
 10
119.3306604537
 20
-45.5890076021
 10
119.852225077
 20
-46.4772704774
 10
120.4295184134
 20
-47.2936864728
 10
121.0576149306
 20
-48.0312902266
 10
121.7311559149
 20
-48.6837887922
 10
122.4443951933
 20
-49.2456156546
 10
123.191247475
 20
-49.7119772965
 10
123.965340913
 20
-50.0788951078
 10
124.760071295
 20
-50.3432389134
 10
125.5686581272
 20
-50.5027521187
 10
126.3842028702
 20
-50.5560749927
  0
INSERT
  5
CE
330
1F
100
AcDbEntity
  8
FORMAT
 62
     7
100
AcDbBlockReference
  2
SW_CENTERMARKSYMBOL_1
 10
122.7230376235
 20
-38.0560748065
 30
0.0
  0
LINE
  5
CF
330
1F
100
AcDbEntity
  8
0
  6
Continuous
 62
     7
370
    25
100
AcDbLine
 10
222.985014327
 20
-35.9189127388
 30
0.0
 11
222.985014327
 21
-91.298612896
 31
0.0
  0
LINE
  5
D0
330
1F
100
AcDbEntity
  8
0
  6
Continuous
 62
     7
370
    25
100
AcDbLine
 10
247.9850154796
 20
-91.298612896
 30
0.0
 11
247.9850154796
 21
-35.9189127388
 31
0.0
  0
LINE
  5
D1
330
1F
100
AcDbEntity
  8
0
  6
Continuous
 62
     7
370
    25
100
AcDbLine
 10
261.4292510009
 20
38.2455998006
 30
0.0
 11
227.248531982
 21
-20.9571371577
 31
0.0
  0
LINE
  5
D2
330
1F
100
AcDbEntity
  8
0
  6
Continuous
 62
     7
370
    25
100
AcDbLine
 10
248.8991674529
 20
-33.4571424497
 30
0.0
 11
283.0798855664
 21
25.7456000695
 31
0.0
  0
SPLINE
  5
D3
330
1F
100
AcDbEntity
  8
0
  6
Continuous
 62
     7
370
    25
100
AcDbSpline
210
0.0
220
0.0
230
1.0
 70
     8
 71
     3
 72
    18
 73
    14
 74
     0
 42
0.000000001
 43
0.00000001
 40
0.0
 40
0.0
 40
0.0
 40
0.0
 40
0.0562496984362703
 40
0.1530895000963739
 40
0.2502102234548005
 40
0.3477564924490985
 40
0.4458741370261904
 40
0.5446830417386965
 40
0.6442552936606868
 40
0.7445893497653425
 40
0.8455791049397897
 40
0.9469485934546721
 40
1.0
 40
1.0
 40
1.0
 40
1.0
 10
227.2485319820145
 20
-20.95713715772044
 30
0.0
 10
227.0997676256048
 20
-21.21960050672557
 30
0.0
 10
226.6948897046905
 20
-21.93392225439392
 30
0.0
 10
226.0845282342796
 20
-23.12866511045889
 30
0.0
 10
225.4365959984757
 20
-24.54628910040931
 30
0.0
 10
224.8564705405875
 20
-25.9935513918166
 30
0.0
 10
224.3460010233534
 20
-27.46724610302076
 30
0.0
 10
223.9089406479695
 20
-28.96488349862866
 30
0.0
 10
223.5493795529668
 20
-30.48317724885477
 30
0.0
 10
223.2714939512874
 20
-32.017982008364
 30
0.0
 10
223.0819091104414
 20
-33.5632350755492
 30
0.0
 10
222.995579355309
 20
-34.86548879445052
 30
0.0
 10
222.9877158423559
 20
-35.64954848388079
 30
0.0
 10
222.9850143269789
 20
-35.91891273878653
 30
0.0
  0
SPLINE
  5
D4
330
1F
100
AcDbEntity
  8
0
  6
Continuous
 62
     7
370
    25
100
AcDbSpline
210
0.0
220
0.0
230
1.0
 70
     8
 71
     3
 72
    16
 73
    12
 74
     0
 42
0.000000001
 43
0.00000001
 40
0.0
 40
0.0
 40
0.0
 40
0.0
 40
0.0948369162445405
 40
0.2132820965674413
 40
0.3278726918451026
 40
0.4406439812654904
 40
0.5531778999478759
 40
0.6665500510194549
 40
0.781100264609638
 40
0.8970740604400771
 40
1.0
 40
1.0
 40
1.0
 40
1.0
 10
247.9853236784586
 20
-35.92308967310505
 30
0.0
 10
247.9852897105849
 20
-35.92166523285419
 30
0.0
 10
247.9852133190318
 20
-35.91846175877285
 30
0.0
 10
247.9954220714932
 20
-35.81247946546758
 30
0.0
 10
248.0265870726982
 20
-35.62729014698884
 30
0.0
 10
248.0859210649828
 20
-35.36802876884407
 30
0.0
 10
248.1792251740667
 20
-35.04718994932771
 30
0.0
 10
248.3101036730927
 20
-34.67530935478026
 30
0.0
 10
248.4804887730816
 20
-34.26666881543665
 30
0.0
 10
248.6773388340271
 20
-33.8531041520683
 30
0.0
 10
248.8292621081781
 20
-33.58392899851989
 30
0.0
 10
248.9006959347431
 20
-33.45736372179288
 30
0.0
  0
LWPOLYLINE
  5
D5
330
1F
100
AcDbEntity
  8
0
  6
Continuous
 62
     7
370
    25
100
AcDbPolyline
 90
       69
 70
   128
 43
0.0
 10
226.6461800068
 20
-86.1960621211
 10
227.499429784
 20
-85.7470247362
 10
228.4208094479
 20
-85.3453514528
 10
229.4024591052
 20
-84.9944695953
 10
230.4360025636
 20
-84.6973723344
 10
231.5126224061
 20
-84.4565943562
 10
232.6231332539
 20
-84.2741900975
 10
233.7580602979
 20
-84.1517157829
 10
234.9077216167
 20
-84.0902161184
 10
236.0623081899
 20
-84.0902161184
 10
237.2119695087
 20
-84.1517157829
 10
238.3468965527
 20
-84.2741900975
 10
239.4574074005
 20
-84.4565943562
 10
240.534027243
 20
-84.6973723344
 10
241.5675707014
 20
-84.9944695953
 10
242.5492203587
 20
-85.3453514528
 10
243.4706000226
 20
-85.7470247362
 10
244.3238497998
 20
-86.1960621211
 10
245.1016896454
 20
-86.6886327328
 10
245.7974835711
 20
-87.2205338909
 10
246.4052946333
 20
-87.7872281757
 10
246.9199379467
 20
-88.3838801141
 10
247.3370228303
 20
-89.0053995198
 10
247.6529905096
 20
-89.6464837864
 10
247.8651452327
 20
-90.301663223
 10
247.9716773192
 20
-90.9653485754
 10
247.9716773192
 20
-91.6318772166
 10
247.8651452327
 20
-92.295562569
 10
247.6529905096
 20
-92.9507420056
 10
247.3370228303
 20
-93.5918262722
 10
246.9199379467
 20
-94.2133456779
 10
246.4052946333
 20
-94.8099976163
 10
245.7974835711
 20
-95.3766919011
 10
245.1016896454
 20
-95.9085930592
 10
244.3238497998
 20
-96.4011636709
 10
243.4706000226
 20
-96.8502010558
 10
242.5492203587
 20
-97.2518743392
 10
241.5675707014
 20
-97.6027561967
 10
240.534027243
 20
-97.8998534576
 10
239.4574074005
 20
-98.1406314358
 10
238.3468965527
 20
-98.3230356945
 10
237.2119695087
 20
-98.4455100092
 10
236.0623081899
 20
-98.5070096736
 10
234.9077216167
 20
-98.5070096736
 10
233.7580602979
 20
-98.4455100092
 10
232.6231332539
 20
-98.3230356945
 10
231.5126224061
 20
-98.1406314358
 10
230.4360025636
 20
-97.8998534576
 10
229.4024591052
 20
-97.6027561967
 10
228.4208094479
 20
-97.2518743392
 10
227.499429784
 20
-96.8502010558
 10
226.6461800068
 20
-96.4011636709
 10
225.8683401612
 20
-95.9085930592
 10
225.1725462355
 20
-95.3766919011
 10
224.5647351733
 20
-94.8099976163
 10
224.0500918599
 20
-94.2133456779
 10
223.6330069763
 20
-93.5918262722
 10
223.317039297
 20
-92.9507420056
 10
223.104884574
 20
-92.295562569
 10
222.9983524874
 20
-91.6318772166
 10
222.9983524874
 20
-90.9653485754
 10
223.104884574
 20
-90.301663223
 10
223.317039297
 20
-89.6464837864
 10
223.6330069763
 20
-89.0053995198
 10
224.0500918599
 20
-88.3838801141
 10
224.5647351733
 20
-87.7872281757
 10
225.1725462355
 20
-87.2205338909
 10
225.8683401612
 20
-86.6886327328
 10
226.6461800068
 20
-86.1960621211
  0
LWPOLYLINE
  5
D6
330
1F
100
AcDbEntity
  8
0
  6
Continuous
 62
     7
370
    25
100
AcDbPolyline
 90
       60
 70
   128
 43
0.0
 10
228.767500698
 20
-87.4206744895
 10
228.0915286328
 20
-87.8548433442
 10
227.4993273803
 20
-88.3280312914
 10
226.9976081675
 20
-88.8348775587
 10
226.5920539044
 20
-89.3696387331
 10
226.2872607376
 20
-89.9262559559
 10
226.0866815806
 20
-90.4984224976
 10
225.9925893998
 20
-91.0796555153
 10
226.0060500496
 20
-91.6633695202
 10
226.1269117353
 20
-92.2429505107
 10
226.3538040259
 20
-92.8118318164
 10
226.6841566222
 20
-93.3635676608
 10
227.1142261925
 20
-93.8919071996
 10
227.6391404129
 20
-94.3908632834
 10
228.2529515977
 20
-94.8547829557
 10
228.948705064
 20
-95.2784097297
 10
229.7185173344
 20
-95.6569439397
 10
230.5536658633
 20
-95.9860968206
 10
231.4446889303
 20
-96.2621382903
 10
232.3814908834
 20
-96.4819409781
 10
233.3534568084
 20
-96.6430144879
 10
234.3495738653
 20
-96.7435340051
 10
235.3585562478
 20
-96.7823603516
 10
236.3689712938
 20
-96.7590534808
 10
237.3693708657
 20
-96.6738776107
 10
238.3484197661
 20
-96.5277981821
 10
239.2950253067
 20
-96.3224697884
 10
240.1984614438
 20
-96.0602188779
 10
241.0484932432
 20
-95.7440175217
 10
241.8354878042
 20
-95.377447512
 10
242.5505292571
 20
-94.9646628676
 10
243.1855159405
 20
-94.5103405781
 10
243.7332521032
 20
-94.0196276654
 10
244.187533227
 20
-93.4980850848
 10
244.5432109755
 20
-92.951621338
 10
244.7962553856
 20
-92.3864284383
 10
244.9438003069
 20
-91.8089100583
 10
244.9841733658
 20
-91.2256098681
 10
244.9169168738
 20
-90.643136737
 10
244.742793096
 20
-90.0680906002
 10
244.4637753613
 20
-89.5069866152
 10
244.0830246831
 20
-88.966182359
 10
243.6048550219
 20
-88.4518056912
 10
243.0346837296
 20
-87.9696847077
 10
242.3789721977
 20
-87.5252815434
 10
241.6451495905
 20
-87.1236316166
 10
240.8415300735
 20
-86.7692859621
 10
239.9772191358
 20
-86.4662594328
 10
239.0620090461
 20
-86.2179855545
 10
238.1062709749
 20
-86.02727706
 10
237.1208328757
 20
-85.8962949287
 10
236.1168603706
 20
-85.8265229627
 10
235.1057284988
 20
-85.818752295
 10
234.0988942886
 20
-85.8730705547
 10
233.107765377
 20
-85.9888624373
 10
232.1435715943
 20
-86.1648157873
 10
231.2172377001
 20
-86.39893728
 10
230.3392590827
 20
-86.6885736164
 10
229.5195847033
 20
-87.0304441226
 10
228.767500698
 20
-87.4206744895
  0
LWPOLYLINE
  5
D7
330
1F
100
AcDbEntity
  8
0
  6
Continuous
 62
     7
370
    25
100
AcDbPolyline
 90
       69
 70
   128
 43
0.0
 10
263.4157333871
 20
37.09815071
 10
264.0301152418
 20
36.7433643501
 10
264.7146643554
 20
36.3480783011
 10
265.4635433891
 20
35.9156541762
 10
266.2703598516
 20
35.4497862243
 10
267.1282326113
 20
34.954447714
 10
268.0298386532
 20
34.4338669784
 10
268.9674921043
 20
33.8924787417
 10
269.9331870392
 20
33.3349146158
 10
270.9186883587
 20
32.7659202069
 10
271.9155884251
 20
32.1903558783
 10
272.9153775262
 20
31.6131226061
 10
273.9095308034
 20
31.0391574172
 10
274.88956324
 20
30.4733560159
 10
275.8471165892
 20
29.9205378045
 10
276.7740168317
 20
29.3854218385
 10
277.6623612689
 20
28.872576543
 10
278.5045665962
 20
28.3863797951
 10
279.2934508917
 20
27.9309685464
 10
280.022280044
 20
27.5102394004
 10
280.6848405211
 20
27.1277792242
 10
281.2754739438
 20
26.7868482361
 10
281.7891462332
 20
26.4903522536
 10
282.2214714831
 20
26.2408289173
 10
282.568764149
 20
26.0404084382
 10
282.828057488
 20
25.8907877499
 10
282.9971427417
 20
25.7932535175
 10
283.0745770391
 20
25.7486319555
 10
283.0596959088
 20
25.7573150703
 10
282.9526330354
 20
25.8192157981
 10
282.7542952347
 20
25.9338128808
 10
282.4663789173
 20
26.1001261551
 10
282.0913384785
 20
26.3167378528
 10
281.6323751033
 20
26.5817960271
 10
281.0934031802
 20
26.8930491601
 10
280.4790213255
 20
27.2478294363
 10
279.7944695778
 20
27.6431261321
 10
279.045590544
 20
28.0755441733
 10
278.2387740815
 20
28.5414182089
 10
277.380903956
 20
29.0367521561
 10
276.4792952799
 20
29.5573374548
 10
275.5416444629
 20
30.0987150447
 10
274.5759468939
 20
30.6562837337
 10
273.5904455744
 20
31.2252842262
 10
272.5935481422
 20
31.8008439918
 10
271.5937564069
 20
32.3780696596
 10
270.5996057639
 20
32.952042453
 10
269.6195706931
 20
33.5178423336
 10
268.6620199781
 20
34.0706559819
 10
267.7351171014
 20
34.6057704272
 10
266.8467726642
 20
35.1186218065
 10
266.0045673369
 20
35.6048185544
 10
265.2156830414
 20
36.060229803
 10
264.4868538891
 20
36.4809528654
 10
263.8242960462
 20
36.8634145623
 10
263.2336599894
 20
37.2043501133
 10
262.719990334
 20
37.5008476166
 10
262.28766245
 20
37.7503633485
 10
261.9403724183
 20
37.9507914319
 10
261.6810764452
 20
38.1004166833
 10
261.5119911915
 20
38.1979448319
 10
261.4345595282
 20
38.2425618309
 10
261.4494380243
 20
38.2338893629
 10
261.5565035318
 20
38.1719840721
 10
261.7548386984
 20
38.0573915524
 10
262.0427550158
 20
37.8910721943
 10
262.4177954546
 20
37.6744665803
 10
262.876761464
 20
37.4093977593
 10
263.4157333871
 20
37.09815071
  0
LWPOLYLINE
  5
D8
330
1F
100
AcDbEntity
  8
0
  6
Continuous
 62
     7
370
    25
100
AcDbPolyline
 90
       60
 70
   128
 43
0.0
 10
265.5370540784
 20
35.8735383415
 10
265.0702145108
 20
36.1431368811
 10
264.6847796056
 20
36.3657313096
 10
264.3851122199
 20
36.5388171521
 10
264.174608468
 20
36.6604297941
 10
264.0556529393
 20
36.7291825148
 10
264.0295963088
 20
36.7443037571
 10
264.0967306408
 20
36.7056209788
 10
264.2562972922
 20
36.6135682652
 10
264.5064878997
 20
36.4692040218
 10
264.844464795
 20
36.2741353175
 10
265.266402493
 20
36.0306034473
 10
265.7675204547
 20
35.7413403109
 10
266.3421383219
 20
35.4096521215
 10
266.9837453532
 20
35.0392728603
 10
267.6850753744
 20
34.6344031407
 10
268.4381770779
 20
34.1996331272
 10
269.2345215303
 20
33.7398987207
 10
270.0650829674
 20
33.2603984162
 10
270.920453258
 20
32.7665667641
 10
271.7909394499
 20
32.2640058885
 10
272.6666781928
 20
31.7583920503
 10
273.5377471965
 20
31.2554721347
 10
274.3942794888
 20
30.7609459727
 10
275.2265651602
 20
30.2803954321
 10
276.0251787923
 20
29.8192868879
 10
276.7810680324
 20
29.3828257861
 10
277.4856718018
 20
28.9759826871
 10
278.1310045898
 20
28.6033502983
 10
278.7097545769
 20
28.2691476522
 10
279.2153666109
 20
27.9771661097
 10
279.6421087204
 20
27.730721827
 10
279.9851458717
 20
27.5325949111
 10
280.2405946278
 20
27.3850373984
 10
280.4055560758
 20
27.2897238171
 10
280.4781652176
 20
27.2477226604
 10
280.4575988726
 20
27.2595222341
 10
280.3440865436
 20
27.3249817871
 10
280.1389166729
 20
27.443361349
 10
279.8444172152
 20
27.6133207692
 10
279.4639171132
 20
27.832929784
 10
279.0017347725
 20
28.099705076
 10
278.4631061157
 20
28.4106244296
 10
277.8541281125
 20
28.7621562831
 10
277.181708648
 20
29.1503312483
 10
276.4534599615
 20
29.5707427925
 10
275.6776362911
 20
30.0186288581
 10
274.8630290001
 20
30.4889111145
 10
274.0188673017
 20
30.9762674788
 10
273.1547143324
 20
31.4751738639
 10
272.280363472
 20
31.979976201
 10
271.4057198887
 20
32.4849588303
 10
270.5406940185
 20
32.9843968731
 10
269.6950863211
 20
33.4726288526
 10
268.8784773017
 20
33.9441232334
 10
268.1001237914
 20
34.3935413476
 10
267.3688404084
 20
34.8157875877
 10
266.6929136181
 20
35.206083361
 10
266.0800029518
 20
35.5600058773
 10
265.5370540784
 20
35.8735383415
  0
ARC
  5
D9
330
1F
100
AcDbEntity
  8
0
  6
Continuous
 62
     1
370
    25
100
AcDbCircle
 10
241.8169561485
 20
-36.4798494129
 30
0.0
 40
6.193513208535803
100
AcDbArc
 50
5.1963084183
 51
66.1238383221
  0
LWPOLYLINE
  5
DA
330
1F
100
AcDbEntity
  8
0
  6
Continuous
 62
     1
370
    25
100
AcDbPolyline
 90
       27
 70
   128
 43
0.0
 10
222.985014327
 20
-35.9189127388
 10
222.9983524874
 20
-35.5856484182
 10
223.104884574
 20
-34.9219630658
 10
223.317039297
 20
-34.2667836292
 10
223.6330069763
 20
-33.6256993626
 10
224.0500918599
 20
-33.0041799569
 10
224.5647351733
 20
-32.4075280185
 10
225.1725462355
 20
-31.8408337337
 10
225.8683401612
 20
-31.3089325756
 10
226.6461800068
 20
-30.8163619639
 10
227.499429784
 20
-30.367324579
 10
228.4208094479
 20
-29.9656512956
 10
229.4024591052
 20
-29.6147694381
 10
230.4360025636
 20
-29.3176721772
 10
231.5126224061
 20
-29.076894199
 10
232.6231332539
 20
-28.8944899403
 10
233.7580602979
 20
-28.7720156256
 10
234.9077216167
 20
-28.7105159611
 10
236.0623081899
 20
-28.7105159611
 10
237.2119695087
 20
-28.7720156256
 10
238.3468965527
 20
-28.8944899403
 10
239.4574074005
 20
-29.076894199
 10
240.534027243
 20
-29.3176721772
 10
241.5675707014
 20
-29.6147694381
 10
242.5492203587
 20
-29.9656512956
 10
243.4706000226
 20
-30.367324579
 10
244.3238497998
 20
-30.8163619639
  0
LWPOLYLINE
  5
DB
330
1F
100
AcDbEntity
  8
0
  6
Continuous
 62
     1
370
    25
100
AcDbPolyline
 90
       12
 70
   128
 43
0.0
 10
244.3238497998
 20
-30.8163619639
 10
245.1127327783
 20
-31.2717678891
 10
245.8415632477
 20
-31.6924962748
 10
246.5041217491
 20
-32.0749636753
 10
247.0947564889
 20
-32.415893903
 10
247.6084281198
 20
-32.712384182
 10
248.0407540282
 20
-32.9619071381
 10
248.3880453771
 20
-33.1623344612
 10
248.6473400331
 20
-33.3119543892
 10
248.8164252868
 20
-33.4094886216
 10
248.8938589257
 20
-33.4541044801
 10
248.8991674529
 20
-33.4571424497
  0
LWPOLYLINE
  5
DC
330
1F
100
AcDbEntity
  8
0
  6
Continuous
 62
     1
370
    25
100
AcDbPolyline
 90
       25
 70
   128
 43
0.0
 10
227.248531982
 20
-20.9571371577
 10
227.2687199932
 20
-20.9688531089
 10
227.3757847393
 20
-21.0307588393
 10
227.5741215728
 20
-21.1453503967
 10
227.8620382195
 20
-21.3116634809
 10
228.2370781643
 20
-21.5282754637
 10
228.6960425274
 20
-21.7933391515
 10
229.2350147798
 20
-22.1045920944
 10
229.8493971284
 20
-22.4593720855
 10
230.5339472297
 20
-22.854663648
 10
231.282825605
 20
-23.287088153
 10
232.0896423968
 20
-23.7529559148
 10
232.9475141686
 20
-24.2482949953
 10
233.8491218568
 20
-24.7688747806
 10
234.7867739909
 20
-25.3102576939
 10
235.7524695843
 20
-25.8678275233
 10
236.7379709038
 20
-26.4368219322
 10
237.7348696531
 20
-27.0123870211
 10
238.7346600713
 20
-27.5896134493
 10
239.72881269
 20
-28.1635790184
 10
240.7088457852
 20
-28.7293861232
 10
241.6663978172
 20
-29.2822050949
 10
242.5933000354
 20
-29.8173138367
 10
243.4816431555
 20
-30.3301598926
 10
244.3238497998
 20
-30.8163619639
  0
ENDSEC
  0
SECTION
  2
OBJECTS
  0
DICTIONARY
  5
C
330
0
100
AcDbDictionary
281
     1
  3
ACAD_GROUP
350
D
  3
ACAD_LAYOUT
350
1A
  3
ACAD_MLINESTYLE
350
17
  3
ACAD_PLOTSETTINGS
350
19
  3
ACAD_PLOTSTYLENAME
350
E
  3
ACAD_SCALELIST
350
47
  0
DICTIONARY
  5
D
102
{ACAD_REACTORS
330
C
102
}
330
C
100
AcDbDictionary
281
     1
  0
DICTIONARY
  5
1A
102
{ACAD_REACTORS
330
C
102
}
330
C
100
AcDbDictionary
281
     1
  3
Layout1
350
1E
  3
Layout2
350
26
  3
Model
350
22
  0
DICTIONARY
  5
17
102
{ACAD_REACTORS
330
C
102
}
330
C
100
AcDbDictionary
281
     1
  3
Standard
350
18
  0
DICTIONARY
  5
19
102
{ACAD_REACTORS
330
C
102
}
330
C
100
AcDbDictionary
281
     1
  0
ACDBDICTIONARYWDFLT
  5
E
102
{ACAD_REACTORS
330
C
102
}
330
C
100
AcDbDictionary
281
     1
  3
Normal
350
F
100
AcDbDictionaryWithDefault
340
F
  0
DICTIONARY
  5
47
102
{ACAD_REACTORS
330
C
102
}
330
C
100
AcDbDictionary
281
     1
  3
A0
350
48
  3
A1
350
49
  3
A2
350
4A
  3
A3
350
4B
  3
A4
350
4C
  3
A5
350
4D
  3
A6
350
4E
  3
A7
350
4F
  3
A8
350
50
  3
A9
350
51
  3
B0
350
52
  3
B1
350
53
  3
B2
350
54
  3
B3
350
55
  3
B4
350
56
  3
B5
350
57
  3
B6
350
58
  3
B7
350
59
  3
B8
350
5A
  3
B9
350
5B
  3
C0
350
5C
  3
C1
350
5D
  3
C2
350
5E
  3
C3
350
5F
  3
C4
350
60
  3
C5
350
61
  3
C6
350
62
  3
C7
350
63
  3
C8
350
64
  3
C9
350
65
  3
D0
350
66
  3
D1
350
67
  3
D2
350
68
  0
LAYOUT
  5
1E
102
{ACAD_REACTORS
330
1A
102
}
330
1A
100
AcDbPlotSettings
  1

  2
none_device
  4

  6

 40
0.0
 41
0.0
 42
0.0
 43
0.0
 44
0.0
 45
0.0
 46
0.0
 47
0.0
 48
0.0
 49
0.0
140
0.0
141
0.0
142
1.0
143
1.0
 70
   688
 72
     1
 73
     0
 74
     5
  7

 75
    16
147
1.0
148
0.0
149
0.0
100
AcDbLayout
  1
Layout1
 70
     1
 71
     1
 10
0.0
 20
0.0
 11
420.0
 21
297.0
 12
0.0
 22
0.0
 32
0.0
 14
1.0000000000E+20
 24
1.0000000000E+20
 34
1.0000000000E+20
 15
-1.0000000000E+20
 25
-1.0000000000E+20
 35
-1.0000000000E+20
146
0.0
 13
0.0
 23
0.0
 33
0.0
 16
1.0
 26
0.0
 36
0.0
 17
0.0
 27
1.0
 37
0.0
 76
     0
330
1B
  0
LAYOUT
  5
26
102
{ACAD_REACTORS
330
1A
102
}
330
1A
100
AcDbPlotSettings
  1

  2
none_device
  4

  6

 40
0.0
 41
0.0
 42
0.0
 43
0.0
 44
0.0
 45
0.0
 46
0.0
 47
0.0
 48
0.0
 49
0.0
140
0.0
141
0.0
142
1.0
143
1.0
 70
   688
 72
     1
 73
     0
 74
     5
  7

 75
    16
147
1.0
148
0.0
149
0.0
100
AcDbLayout
  1
Layout2
 70
     1
 71
     2
 10
0.0
 20
0.0
 11
0.0
 21
0.0
 12
0.0
 22
0.0
 32
0.0
 14
0.0
 24
0.0
 34
0.0
 15
0.0
 25
0.0
 35
0.0
146
0.0
 13
0.0
 23
0.0
 33
0.0
 16
1.0
 26
0.0
 36
0.0
 17
0.0
 27
1.0
 37
0.0
 76
     0
330
23
  0
LAYOUT
  5
22
102
{ACAD_REACTORS
330
1A
102
}
330
1A
100
AcDbPlotSettings
  1

  2
none_device
  4
Letter_(8.50_x_11.00_Inches)
  6

 40
6.35
 41
6.35
 42
6.35000508
 43
6.35000508
 44
215.9
 45
279.4
 46
0.0
 47
0.0
 48
0.0
 49
0.0
140
0.0
141
0.0
142
1.0
143
1.0
 70
  1712
 72
     1
 73
     0
 74
     0
  7

 75
     0
147
1.0
148
0.0
149
0.0
100
AcDbLayout
  1
Model
 70
     1
 71
     0
 10
0.0
 20
0.0
 11
279.4
 21
215.9
 12
0.0
 22
0.0
 32
0.0
 14
0.0
 24
0.0
 34
0.0
 15
279.4
 25
215.9
 35
0.0
146
0.0
 13
0.0
 23
0.0
 33
0.0
 16
1.0
 26
0.0
 36
0.0
 17
0.0
 27
1.0
 37
0.0
 76
     0
330
1F
331
29
  0
MLINESTYLE
  5
18
102
{ACAD_REACTORS
330
17
102
}
330
17
100
AcDbMlineStyle
  2
Standard
 70
     0
  3

 62
   256
 51
90.0
 52
90.0
 71
     2
 49
0.5
 62
   256
  6
BYLAYER
 49
-0.5
 62
   256
  6
BYLAYER
  0
ACDBPLACEHOLDER
  5
F
102
{ACAD_REACTORS
330
E
102
}
330
E
  0
SCALE
  5
48
102
{ACAD_REACTORS
330
47
102
}
330
47
100
AcDbScale
 70
     0
300
1:1
140
1.0
141
1.0
290
     1
  0
SCALE
  5
49
102
{ACAD_REACTORS
330
47
102
}
330
47
100
AcDbScale
 70
     0
300
1:2
140
1.0
141
2.0
290
     0
  0
SCALE
  5
4A
102
{ACAD_REACTORS
330
47
102
}
330
47
100
AcDbScale
 70
     0
300
1:4
140
1.0
141
4.0
290
     0
  0
SCALE
  5
4B
102
{ACAD_REACTORS
330
47
102
}
330
47
100
AcDbScale
 70
     0
300
1:5
140
1.0
141
5.0
290
     0
  0
SCALE
  5
4C
102
{ACAD_REACTORS
330
47
102
}
330
47
100
AcDbScale
 70
     0
300
1:8
140
1.0
141
8.0
290
     0
  0
SCALE
  5
4D
102
{ACAD_REACTORS
330
47
102
}
330
47
100
AcDbScale
 70
     0
300
1:10
140
1.0
141
10.0
290
     0
  0
SCALE
  5
4E
102
{ACAD_REACTORS
330
47
102
}
330
47
100
AcDbScale
 70
     0
300
1:16
140
1.0
141
16.0
290
     0
  0
SCALE
  5
4F
102
{ACAD_REACTORS
330
47
102
}
330
47
100
AcDbScale
 70
     0
300
1:20
140
1.0
141
20.0
290
     0
  0
SCALE
  5
50
102
{ACAD_REACTORS
330
47
102
}
330
47
100
AcDbScale
 70
     0
300
1:30
140
1.0
141
30.0
290
     0
  0
SCALE
  5
51
102
{ACAD_REACTORS
330
47
102
}
330
47
100
AcDbScale
 70
     0
300
1:40
140
1.0
141
40.0
290
     0
  0
SCALE
  5
52
102
{ACAD_REACTORS
330
47
102
}
330
47
100
AcDbScale
 70
     0
300
1:50
140
1.0
141
50.0
290
     0
  0
SCALE
  5
53
102
{ACAD_REACTORS
330
47
102
}
330
47
100
AcDbScale
 70
     0
300
1:100
140
1.0
141
100.0
290
     0
  0
SCALE
  5
54
102
{ACAD_REACTORS
330
47
102
}
330
47
100
AcDbScale
 70
     0
300
2:1
140
2.0
141
1.0
290
     0
  0
SCALE
  5
55
102
{ACAD_REACTORS
330
47
102
}
330
47
100
AcDbScale
 70
     0
300
4:1
140
4.0
141
1.0
290
     0
  0
SCALE
  5
56
102
{ACAD_REACTORS
330
47
102
}
330
47
100
AcDbScale
 70
     0
300
8:1
140
8.0
141
1.0
290
     0
  0
SCALE
  5
57
102
{ACAD_REACTORS
330
47
102
}
330
47
100
AcDbScale
 70
     0
300
10:1
140
10.0
141
1.0
290
     0
  0
SCALE
  5
58
102
{ACAD_REACTORS
330
47
102
}
330
47
100
AcDbScale
 70
     0
300
100:1
140
100.0
141
1.0
290
     0
  0
SCALE
  5
59
102
{ACAD_REACTORS
330
47
102
}
330
47
100
AcDbScale
 70
     0
300
1/128" = 1'-0"
140
0.0078125
141
12.0
290
     0
  0
SCALE
  5
5A
102
{ACAD_REACTORS
330
47
102
}
330
47
100
AcDbScale
 70
     0
300
1/64" = 1'-0"
140
0.015625
141
12.0
290
     0
  0
SCALE
  5
5B
102
{ACAD_REACTORS
330
47
102
}
330
47
100
AcDbScale
 70
     0
300
1/32" = 1'-0"
140
0.03125
141
12.0
290
     0
  0
SCALE
  5
5C
102
{ACAD_REACTORS
330
47
102
}
330
47
100
AcDbScale
 70
     0
300
1/16" = 1'-0"
140
0.0625
141
12.0
290
     0
  0
SCALE
  5
5D
102
{ACAD_REACTORS
330
47
102
}
330
47
100
AcDbScale
 70
     0
300
3/32" = 1'-0"
140
0.09375
141
12.0
290
     0
  0
SCALE
  5
5E
102
{ACAD_REACTORS
330
47
102
}
330
47
100
AcDbScale
 70
     0
300
1/8" = 1'-0"
140
0.125
141
12.0
290
     0
  0
SCALE
  5
5F
102
{ACAD_REACTORS
330
47
102
}
330
47
100
AcDbScale
 70
     0
300
3/16" = 1'-0"
140
0.1875
141
12.0
290
     0
  0
SCALE
  5
60
102
{ACAD_REACTORS
330
47
102
}
330
47
100
AcDbScale
 70
     0
300
1/4" = 1'-0"
140
0.25
141
12.0
290
     0
  0
SCALE
  5
61
102
{ACAD_REACTORS
330
47
102
}
330
47
100
AcDbScale
 70
     0
300
3/8" = 1'-0"
140
0.375
141
12.0
290
     0
  0
SCALE
  5
62
102
{ACAD_REACTORS
330
47
102
}
330
47
100
AcDbScale
 70
     0
300
1/2" = 1'-0"
140
0.5
141
12.0
290
     0
  0
SCALE
  5
63
102
{ACAD_REACTORS
330
47
102
}
330
47
100
AcDbScale
 70
     0
300
3/4" = 1'-0"
140
0.75
141
12.0
290
     0
  0
SCALE
  5
64
102
{ACAD_REACTORS
330
47
102
}
330
47
100
AcDbScale
 70
     0
300
1" = 1'-0"
140
1.0
141
12.0
290
     0
  0
SCALE
  5
65
102
{ACAD_REACTORS
330
47
102
}
330
47
100
AcDbScale
 70
     0
300
1-1/2" = 1'-0"
140
1.5
141
12.0
290
     0
  0
SCALE
  5
66
102
{ACAD_REACTORS
330
47
102
}
330
47
100
AcDbScale
 70
     0
300
3" = 1'-0"
140
3.0
141
12.0
290
     0
  0
SCALE
  5
67
102
{ACAD_REACTORS
330
47
102
}
330
47
100
AcDbScale
 70
     0
300
6" = 1'-0"
140
6.0
141
12.0
290
     0
  0
SCALE
  5
68
102
{ACAD_REACTORS
330
47
102
}
330
47
100
AcDbScale
 70
     0
300
1'-0" = 1'-0"
140
12.0
141
12.0
290
     0
  0
ENDSEC
  0
EOF
